ISO-10303-21;
HEADER;
/* Generated by software containing ST-Developer
 * from STEP Tools, Inc. (www.steptools.com) 
 */
/* OPTION: using custom schema-name function */

FILE_DESCRIPTION(
/* description */ (''),
/* implementation_level */ '2;1');

FILE_NAME(
/* name */ 'CAD_7156463_MOD_003_003_FR.stp',
/* time_stamp */ '2016-04-27T14:41:25+02:00',
/* author */ ('VR - Julian Pauli'),
/* organization */ ('Walter AG'),
/* preprocessor_version */ 'ST-DEVELOPER v11',
/* originating_system */ 'SIEMENS UGS NX 6.0',
/* authorisation */ '');

FILE_SCHEMA (('AUTOMOTIVE_DESIGN { 1 0 10303 214 1 1 1 1 }'));
ENDSEC;

DATA;
#10=SHAPE_DEFINITION_REPRESENTATION(#11,#20);
#11=PRODUCT_DEFINITION_SHAPE('','',#12);
#12=PRODUCT_DEFINITION(' ','',#14,#13);
#13=PRODUCT_DEFINITION_CONTEXT('part definition',#19,'design');
#14=PRODUCT_DEFINITION_FORMATION_WITH_SPECIFIED_SOURCE(' ',' ',#16,.NOT_KNOWN.);
#15=PRODUCT_RELATED_PRODUCT_CATEGORY('part','',(#16));
#16=PRODUCT('042902_simple','042902_simple',' ',(#17));
#17=PRODUCT_CONTEXT(' ',#19,'mechanical');
#18=APPLICATION_PROTOCOL_DEFINITION('international standard',
'automotive_design',2001,#19);
#19=APPLICATION_CONTEXT(
'core data for automotive mechanical design processes');
#20=SHAPE_REPRESENTATION('042902_simple-None',(#192,#34,#35,#21),#309);
#21=GEOMETRIC_CURVE_SET('None',(#181,#182,#183,#184,#185));
#22=SURFACE_STYLE_USAGE(.BOTH.,#24);
#23=SURFACE_STYLE_USAGE(.BOTH.,#25);
#24=SURFACE_SIDE_STYLE('',(#26));
#25=SURFACE_SIDE_STYLE('',(#27));
#26=SURFACE_STYLE_FILL_AREA(#28);
#27=SURFACE_STYLE_FILL_AREA(#29);
#28=FILL_AREA_STYLE('',(#30));
#29=FILL_AREA_STYLE('',(#31));
#30=FILL_AREA_STYLE_COLOUR('',#32);
#31=FILL_AREA_STYLE_COLOUR('',#33);
#32=COLOUR_RGB('Dark Gray',0.4,0.4,0.4);
#33=COLOUR_RGB('Pale Gray',0.8,0.8,0.8);
#34=MANIFOLD_SOLID_BREP('',#36);
#35=MANIFOLD_SOLID_BREP('',#37);
#36=CLOSED_SHELL('',(#50,#51,#52,#53,#54,#55,#56,#57));
#37=CLOSED_SHELL('',(#58,#59,#60,#61));
#38=TOROIDAL_SURFACE('',#208,6.685,2.);
#39=PLANE('',#204);
#40=PLANE('',#209);
#41=PLANE('',#211);
#42=PLANE('',#213);
#43=FACE_OUTER_BOUND('',#88,.T.);
#44=FACE_OUTER_BOUND('',#95,.T.);
#45=FACE_OUTER_BOUND('',#96,.T.);
#46=FACE_OUTER_BOUND('',#97,.T.);
#47=CYLINDRICAL_SURFACE('',#199,4.685);
#48=CYLINDRICAL_SURFACE('',#207,5.);
#49=CYLINDRICAL_SURFACE('',#216,4.66);
#50=ADVANCED_FACE('',(#66,#67),#62,.T.);
#51=ADVANCED_FACE('',(#68,#69),#47,.T.);
#52=ADVANCED_FACE('',(#70,#71),#63,.T.);
#53=ADVANCED_FACE('',(#43),#39,.T.);
#54=ADVANCED_FACE('',(#72,#73),#64,.T.);
#55=ADVANCED_FACE('',(#74,#75),#48,.T.);
#56=ADVANCED_FACE('',(#76,#77),#38,.F.);
#57=ADVANCED_FACE('',(#44),#40,.T.);
#58=ADVANCED_FACE('',(#45),#41,.F.);
#59=ADVANCED_FACE('',(#46),#42,.F.);
#60=ADVANCED_FACE('',(#78,#79),#65,.T.);
#61=ADVANCED_FACE('',(#80,#81),#49,.T.);
#62=CONICAL_SURFACE('',#197,4.66,88.9999999999999);
#63=CONICAL_SURFACE('',#202,4.685,30.0000000000002);
#64=CONICAL_SURFACE('',#206,5.,45.);
#65=CONICAL_SURFACE('',#215,4.56000000000002,45.0000000000002);
#66=FACE_BOUND('',#82,.T.);
#67=FACE_BOUND('',#83,.T.);
#68=FACE_BOUND('',#84,.T.);
#69=FACE_BOUND('',#85,.T.);
#70=FACE_BOUND('',#86,.T.);
#71=FACE_BOUND('',#87,.T.);
#72=FACE_BOUND('',#89,.T.);
#73=FACE_BOUND('',#90,.T.);
#74=FACE_BOUND('',#91,.T.);
#75=FACE_BOUND('',#92,.T.);
#76=FACE_BOUND('',#93,.T.);
#77=FACE_BOUND('',#94,.T.);
#78=FACE_BOUND('',#98,.T.);
#79=FACE_BOUND('',#99,.T.);
#80=FACE_BOUND('',#100,.T.);
#81=FACE_BOUND('',#101,.T.);
#82=EDGE_LOOP('',(#102));
#83=EDGE_LOOP('',(#103));
#84=EDGE_LOOP('',(#104));
#85=EDGE_LOOP('',(#105));
#86=EDGE_LOOP('',(#106));
#87=EDGE_LOOP('',(#107));
#88=EDGE_LOOP('',(#108));
#89=EDGE_LOOP('',(#109));
#90=EDGE_LOOP('',(#110));
#91=EDGE_LOOP('',(#111));
#92=EDGE_LOOP('',(#112));
#93=EDGE_LOOP('',(#113));
#94=EDGE_LOOP('',(#114));
#95=EDGE_LOOP('',(#115));
#96=EDGE_LOOP('',(#116));
#97=EDGE_LOOP('',(#117));
#98=EDGE_LOOP('',(#118));
#99=EDGE_LOOP('',(#119));
#100=EDGE_LOOP('',(#120));
#101=EDGE_LOOP('',(#121));
#102=ORIENTED_EDGE('',*,*,#132,.T.);
#103=ORIENTED_EDGE('',*,*,#133,.F.);
#104=ORIENTED_EDGE('',*,*,#134,.T.);
#105=ORIENTED_EDGE('',*,*,#132,.F.);
#106=ORIENTED_EDGE('',*,*,#135,.T.);
#107=ORIENTED_EDGE('',*,*,#136,.F.);
#108=ORIENTED_EDGE('',*,*,#137,.T.);
#109=ORIENTED_EDGE('',*,*,#137,.F.);
#110=ORIENTED_EDGE('',*,*,#138,.T.);
#111=ORIENTED_EDGE('',*,*,#136,.T.);
#112=ORIENTED_EDGE('',*,*,#138,.F.);
#113=ORIENTED_EDGE('',*,*,#134,.F.);
#114=ORIENTED_EDGE('',*,*,#135,.F.);
#115=ORIENTED_EDGE('',*,*,#133,.T.);
#116=ORIENTED_EDGE('',*,*,#139,.T.);
#117=ORIENTED_EDGE('',*,*,#140,.F.);
#118=ORIENTED_EDGE('',*,*,#141,.F.);
#119=ORIENTED_EDGE('',*,*,#140,.T.);
#120=ORIENTED_EDGE('',*,*,#139,.F.);
#121=ORIENTED_EDGE('',*,*,#141,.T.);
#122=VERTEX_POINT('',#277);
#123=VERTEX_POINT('',#279);
#124=VERTEX_POINT('',#282);
#125=VERTEX_POINT('',#285);
#126=VERTEX_POINT('',#287);
#127=VERTEX_POINT('',#290);
#128=VERTEX_POINT('',#293);
#129=VERTEX_POINT('',#299);
#130=VERTEX_POINT('',#302);
#131=VERTEX_POINT('',#305);
#132=EDGE_CURVE('',#122,#122,#145,.T.);
#133=EDGE_CURVE('',#123,#123,#146,.T.);
#134=EDGE_CURVE('',#124,#124,#147,.T.);
#135=EDGE_CURVE('',#125,#125,#148,.T.);
#136=EDGE_CURVE('',#126,#126,#149,.T.);
#137=EDGE_CURVE('',#127,#127,#150,.T.);
#138=EDGE_CURVE('',#128,#128,#151,.T.);
#139=EDGE_CURVE('',#129,#129,#152,.T.);
#140=EDGE_CURVE('',#130,#130,#153,.T.);
#141=EDGE_CURVE('',#131,#131,#154,.T.);
#142=INVISIBILITY((#159,#160));
#143=CIRCLE('',#193,2.);
#144=CIRCLE('',#194,2.);
#145=CIRCLE('',#195,4.685);
#146=CIRCLE('',#196,4.6600000000004);
#147=CIRCLE('',#198,4.685);
#148=CIRCLE('',#200,4.95294919243112);
#149=CIRCLE('',#201,5.);
#150=CIRCLE('',#203,4.4);
#151=CIRCLE('',#205,5.);
#152=CIRCLE('',#210,4.66);
#153=CIRCLE('',#212,4.56000000000002);
#154=CIRCLE('',#214,4.66);
#155=PRESENTATION_LAYER_ASSIGNMENT('1','Layer 1',(#181,#182,#183,#184,#185,
#34,#35));
#156=STYLED_ITEM('',(#163),#181);
#157=STYLED_ITEM('',(#164),#182);
#158=STYLED_ITEM('',(#165),#183);
#159=STYLED_ITEM('',(#166),#184);
#160=STYLED_ITEM('',(#167),#185);
#161=STYLED_ITEM('',(#168),#34);
#162=STYLED_ITEM('',(#169),#35);
#163=PRESENTATION_STYLE_ASSIGNMENT((#170));
#164=PRESENTATION_STYLE_ASSIGNMENT((#171));
#165=PRESENTATION_STYLE_ASSIGNMENT((#172));
#166=PRESENTATION_STYLE_ASSIGNMENT((#173));
#167=PRESENTATION_STYLE_ASSIGNMENT((#174));
#168=PRESENTATION_STYLE_ASSIGNMENT((#22));
#169=PRESENTATION_STYLE_ASSIGNMENT((#23));
#170=CURVE_STYLE('',#176,POSITIVE_LENGTH_MEASURE(0.352777777777778),#175);
#171=CURVE_STYLE('',#177,POSITIVE_LENGTH_MEASURE(0.352777777777778),#175);
#172=CURVE_STYLE('',#178,POSITIVE_LENGTH_MEASURE(0.352777777777778),#175);
#173=CURVE_STYLE('',#179,POSITIVE_LENGTH_MEASURE(0.352777777777778),#175);
#174=CURVE_STYLE('',#180,POSITIVE_LENGTH_MEASURE(0.352777777777778),#175);
#175=DRAUGHTING_PRE_DEFINED_COLOUR('blue');
#176=DRAUGHTING_PRE_DEFINED_CURVE_FONT('continuous');
#177=DRAUGHTING_PRE_DEFINED_CURVE_FONT('continuous');
#178=DRAUGHTING_PRE_DEFINED_CURVE_FONT('continuous');
#179=DRAUGHTING_PRE_DEFINED_CURVE_FONT('dashed');
#180=DRAUGHTING_PRE_DEFINED_CURVE_FONT('dashed');
#181=TRIMMED_CURVE('',#186,(PARAMETER_VALUE(0.)),(PARAMETER_VALUE(1.)),.T.,
 .PARAMETER.);
#182=TRIMMED_CURVE('',#187,(PARAMETER_VALUE(0.)),(PARAMETER_VALUE(1.)),.T.,
 .PARAMETER.);
#183=TRIMMED_CURVE('',#188,(PARAMETER_VALUE(0.)),(PARAMETER_VALUE(1.)),.T.,
 .PARAMETER.);
#184=TRIMMED_CURVE('',#143,(PARAMETER_VALUE(180.)),(PARAMETER_VALUE(270.)),
 .T.,.PARAMETER.);
#185=TRIMMED_CURVE('',#144,(PARAMETER_VALUE(270.)),(PARAMETER_VALUE(360.)),
 .T.,.PARAMETER.);
#186=LINE('',#271,#189);
#187=LINE('',#272,#190);
#188=LINE('',#273,#191);
#189=VECTOR('',#219,4.56000000000002);
#190=VECTOR('',#220,29.899);
#191=VECTOR('',#221,0.14142135623728);
#192=AXIS2_PLACEMENT_3D('',#270,#217,#218);
#193=AXIS2_PLACEMENT_3D('',#274,#222,#223);
#194=AXIS2_PLACEMENT_3D('',#275,#224,#225);
#195=AXIS2_PLACEMENT_3D('',#276,#226,#227);
#196=AXIS2_PLACEMENT_3D('',#278,#228,#229);
#197=AXIS2_PLACEMENT_3D('',#280,#230,#231);
#198=AXIS2_PLACEMENT_3D('',#281,#232,#233);
#199=AXIS2_PLACEMENT_3D('',#283,#234,#235);
#200=AXIS2_PLACEMENT_3D('',#284,#236,#237);
#201=AXIS2_PLACEMENT_3D('',#286,#238,#239);
#202=AXIS2_PLACEMENT_3D('',#288,#240,#241);
#203=AXIS2_PLACEMENT_3D('',#289,#242,#243);
#204=AXIS2_PLACEMENT_3D('',#291,#244,#245);
#205=AXIS2_PLACEMENT_3D('',#292,#246,#247);
#206=AXIS2_PLACEMENT_3D('',#294,#248,#249);
#207=AXIS2_PLACEMENT_3D('',#295,#250,#251);
#208=AXIS2_PLACEMENT_3D('',#296,#252,#253);
#209=AXIS2_PLACEMENT_3D('',#297,#254,#255);
#210=AXIS2_PLACEMENT_3D('',#298,#256,#257);
#211=AXIS2_PLACEMENT_3D('',#300,#258,#259);
#212=AXIS2_PLACEMENT_3D('',#301,#260,#261);
#213=AXIS2_PLACEMENT_3D('',#303,#262,#263);
#214=AXIS2_PLACEMENT_3D('',#304,#264,#265);
#215=AXIS2_PLACEMENT_3D('',#306,#266,#267);
#216=AXIS2_PLACEMENT_3D('',#307,#268,#269);
#217=DIRECTION('',(0.,0.,1.));
#218=DIRECTION('',(1.,0.,0.));
#219=DIRECTION('',(-1.,-9.73879846162414E-017,0.));
#220=DIRECTION('',(0.,0.,1.));
#221=DIRECTION('',(0.707106781186538,0.,0.707106781186557));
#222=DIRECTION('',(-0.963541540781702,-0.26755877707155,0.));
#223=DIRECTION('',(0.26755877707155,-0.963541540781702,0.));
#224=DIRECTION('',(-0.963541540781702,-0.26755877707155,0.));
#225=DIRECTION('',(0.26755877707155,-0.963541540781702,0.));
#226=DIRECTION('',(0.,0.,-1.));
#227=DIRECTION('',(-0.948005589942643,0.318253674664569,0.));
#228=DIRECTION('',(0.,0.,-1.));
#229=DIRECTION('',(0.948005589942643,-0.318253674664569,0.));
#230=DIRECTION('',(0.,0.,1.));
#231=DIRECTION('',(-0.948005589942643,0.318253674664569,-6.05544962721486E-019));
#232=DIRECTION('',(0.,0.,-1.));
#233=DIRECTION('',(-0.948005589942643,0.318253674664569,0.));
#234=DIRECTION('',(0.,0.,1.));
#235=DIRECTION('',(-0.948005589942643,0.318253674664569,0.));
#236=DIRECTION('',(0.,0.,1.));
#237=DIRECTION('',(-0.948005589942643,0.318253674664569,0.));
#238=DIRECTION('',(0.,0.,1.));
#239=DIRECTION('',(-0.948005589942643,0.318253674664569,0.));
#240=DIRECTION('',(0.,0.,1.));
#241=DIRECTION('',(-0.948005589942643,0.318253674664569,-8.34524296010067E-017));
#242=DIRECTION('',(0.,0.,1.));
#243=DIRECTION('',(-0.948005589942643,0.318253674664569,0.));
#244=DIRECTION('',(0.,0.,1.));
#245=DIRECTION('',(-0.948005589942643,0.318253674664569,0.));
#246=DIRECTION('',(0.,0.,1.));
#247=DIRECTION('',(-0.948005589942643,0.318253674664569,0.));
#248=DIRECTION('',(0.,0.,-1.));
#249=DIRECTION('',(0.948005589942643,-0.318253674664569,6.59151768545914E-017));
#250=DIRECTION('',(0.,0.,1.));
#251=DIRECTION('',(-0.948005589942643,0.318253674664569,0.));
#252=DIRECTION('',(0.,0.,1.));
#253=DIRECTION('',(-0.948005589942643,0.318253674664569,0.));
#254=DIRECTION('',(0.,0.,-1.));
#255=DIRECTION('',(0.948005589942643,-0.318253674664569,0.));
#256=DIRECTION('',(0.,0.,1.));
#257=DIRECTION('',(-0.948005589942643,0.318253674664569,0.));
#258=DIRECTION('',(0.,0.,-1.));
#259=DIRECTION('',(0.948005589942643,-0.318253674664569,0.));
#260=DIRECTION('',(0.,0.,1.));
#261=DIRECTION('',(-0.948005589942643,0.318253674664569,0.));
#262=DIRECTION('',(0.,0.,1.));
#263=DIRECTION('',(-0.948005589942643,0.318253674664569,0.));
#264=DIRECTION('',(0.,0.,1.));
#265=DIRECTION('',(-0.948005589942643,0.318253674664569,0.));
#266=DIRECTION('',(0.,0.,1.));
#267=DIRECTION('',(-0.948005589942644,0.318253674664569,4.1444377064031E-017));
#268=DIRECTION('',(0.,0.,1.));
#269=DIRECTION('',(-0.948005589942643,0.318253674664569,0.));
#270=CARTESIAN_POINT('',(0.,0.,0.));
#271=CARTESIAN_POINT('',(4.56000000000002,4.44089209850063E-016,-80.));
#272=CARTESIAN_POINT('',(4.66,4.44089209850063E-016,-79.9));
#273=CARTESIAN_POINT('',(4.56000000000002,2.22044604925031E-016,-80.));
#274=CARTESIAN_POINT('',(-1.60535266242931,5.78124924469023,-98.0000000000001));
#275=CARTESIAN_POINT('',(1.6053526624293,-5.78124924469023,-98.0000000000001));
#276=CARTESIAN_POINT('',(0.,0.,-49.9995636233768));
#277=CARTESIAN_POINT('',(-4.44140618888128,1.4910184658035,-49.9995636233768));
#278=CARTESIAN_POINT('',(0.,0.,-50.));
#279=CARTESIAN_POINT('',(4.41770604913309,-1.48306212393702,-50.));
#280=CARTESIAN_POINT('',(0.,0.,-50.));
#281=CARTESIAN_POINT('',(0.,0.,-41.2158983848623));
#282=CARTESIAN_POINT('',(-4.44140618888128,1.4910184658035,-41.2158983848623));
#283=CARTESIAN_POINT('',(0.,0.,0.));
#284=CARTESIAN_POINT('',(0.,0.,-40.2158983848622));
#285=CARTESIAN_POINT('',(-4.69542352112661,1.57629428091811,-40.2158983848622));
#286=CARTESIAN_POINT('',(0.,0.,-40.1344039956158));
#287=CARTESIAN_POINT('',(-4.74002794971322,1.59126837332284,-40.1344039956158));
#288=CARTESIAN_POINT('',(0.,0.,-40.68));
#289=CARTESIAN_POINT('',(0.,0.,4.70001641772443E-017));
#290=CARTESIAN_POINT('',(-4.17122459574763,1.4003161685241,4.70001641772443E-017));
#291=CARTESIAN_POINT('',(1.68399621348428E-015,-5.65332091654669E-016,8.03647919695936E-016));
#292=CARTESIAN_POINT('',(0.,0.,-0.6));
#293=CARTESIAN_POINT('',(-4.74002794971322,1.59126837332284,-0.6));
#294=CARTESIAN_POINT('',(0.,0.,-0.6));
#295=CARTESIAN_POINT('',(0.,0.,0.));
#296=CARTESIAN_POINT('',(0.,0.,-41.2158983848623));
#297=CARTESIAN_POINT('',(0.,0.,-50.));
#298=CARTESIAN_POINT('',(0.,0.,-50.));
#299=CARTESIAN_POINT('',(-4.41770604913272,1.48306212393689,-50.));
#300=CARTESIAN_POINT('',(0.,0.,-50.));
#301=CARTESIAN_POINT('',(0.,0.,-80.));
#302=CARTESIAN_POINT('',(-4.32290549013848,1.45123675647044,-80.));
#303=CARTESIAN_POINT('',(-5.05198864045285E-015,1.69599627496401E-015,-80.));
#304=CARTESIAN_POINT('',(0.,0.,-79.9));
#305=CARTESIAN_POINT('',(-4.41770604913272,1.48306212393689,-79.9));
#306=CARTESIAN_POINT('',(0.,0.,-80.));
#307=CARTESIAN_POINT('',(0.,0.,0.));
#308=MECHANICAL_DESIGN_GEOMETRIC_PRESENTATION_REPRESENTATION('',(#156,#157,
#158,#159,#160,#161,#162),#309);
#309=(
GEOMETRIC_REPRESENTATION_CONTEXT(3)
GLOBAL_UNCERTAINTY_ASSIGNED_CONTEXT((#310))
GLOBAL_UNIT_ASSIGNED_CONTEXT((#316,#312,#311))
REPRESENTATION_CONTEXT('CAD_7156463_MOD_003_003_FR',
'TOP_LEVEL_ASSEMBLY_PART')
);
#310=UNCERTAINTY_MEASURE_WITH_UNIT(LENGTH_MEASURE(2.E-005),#316,
'DISTANCE_ACCURACY_VALUE','Maximum Tolerance applied to model');
#311=(
NAMED_UNIT(*)
SI_UNIT($,.STERADIAN.)
SOLID_ANGLE_UNIT()
);
#312=(
CONVERSION_BASED_UNIT('DEGREE',#314)
NAMED_UNIT(#313)
PLANE_ANGLE_UNIT()
);
#313=DIMENSIONAL_EXPONENTS(0.,0.,0.,0.,0.,0.,0.);
#314=PLANE_ANGLE_MEASURE_WITH_UNIT(PLANE_ANGLE_MEASURE(0.0174532925),#315);
#315=(
NAMED_UNIT(*)
PLANE_ANGLE_UNIT()
SI_UNIT($,.RADIAN.)
);
#316=(
LENGTH_UNIT()
NAMED_UNIT(*)
SI_UNIT(.MILLI.,.METRE.)
);
ENDSEC;
END-ISO-10303-21;
