ISO-10303-21;
HEADER;
/* Generated by software containing ST-Developer
 * from STEP Tools, Inc. (www.steptools.com) 
 */
/* OPTION: using custom schema-name function */

FILE_DESCRIPTION(
/* description */ (''),
/* implementation_level */ '2;1');

FILE_NAME(
/* name */ 'CAD_7156461_MOD_003_003_FR.stp',
/* time_stamp */ '2016-04-27T14:17:11+02:00',
/* author */ ('VR - Julian Pauli'),
/* organization */ ('Walter AG'),
/* preprocessor_version */ 'ST-DEVELOPER v11',
/* originating_system */ 'SIEMENS UGS NX 6.0',
/* authorisation */ '');

FILE_SCHEMA (('AUTOMOTIVE_DESIGN { 1 0 10303 214 1 1 1 1 }'));
ENDSEC;

DATA;
#10=SHAPE_DEFINITION_REPRESENTATION(#11,#20);
#11=PRODUCT_DEFINITION_SHAPE('','',#12);
#12=PRODUCT_DEFINITION(' ','',#14,#13);
#13=PRODUCT_DEFINITION_CONTEXT('part definition',#19,'design');
#14=PRODUCT_DEFINITION_FORMATION_WITH_SPECIFIED_SOURCE(' ',' ',#16,.NOT_KNOWN.);
#15=PRODUCT_RELATED_PRODUCT_CATEGORY('part','',(#16));
#16=PRODUCT('042900_simple','042900_simple',' ',(#17));
#17=PRODUCT_CONTEXT(' ',#19,'mechanical');
#18=APPLICATION_PROTOCOL_DEFINITION('international standard',
'automotive_design',2001,#19);
#19=APPLICATION_CONTEXT(
'core data for automotive mechanical design processes');
#20=SHAPE_REPRESENTATION('042900_simple-None',(#148,#34,#35,#21),#229);
#21=GEOMETRIC_CURVE_SET('None',(#137,#138,#139,#140,#141));
#22=SURFACE_STYLE_USAGE(.BOTH.,#24);
#23=SURFACE_STYLE_USAGE(.BOTH.,#25);
#24=SURFACE_SIDE_STYLE('',(#26));
#25=SURFACE_SIDE_STYLE('',(#27));
#26=SURFACE_STYLE_FILL_AREA(#28);
#27=SURFACE_STYLE_FILL_AREA(#29);
#28=FILL_AREA_STYLE('',(#30));
#29=FILL_AREA_STYLE('',(#31));
#30=FILL_AREA_STYLE_COLOUR('',#32);
#31=FILL_AREA_STYLE_COLOUR('',#33);
#32=COLOUR_RGB('Dark Gray',0.4,0.4,0.4);
#33=COLOUR_RGB('Pale Gray',0.8,0.8,0.8);
#34=MANIFOLD_SOLID_BREP('',#36);
#35=MANIFOLD_SOLID_BREP('',#37);
#36=CLOSED_SHELL('',(#48,#49,#50,#51));
#37=CLOSED_SHELL('',(#52,#53,#54,#55));
#38=PLANE('',#156);
#39=PLANE('',#157);
#40=PLANE('',#159);
#41=PLANE('',#163);
#42=FACE_OUTER_BOUND('',#70,.T.);
#43=FACE_OUTER_BOUND('',#71,.T.);
#44=FACE_OUTER_BOUND('',#72,.T.);
#45=FACE_OUTER_BOUND('',#75,.T.);
#46=CONICAL_SURFACE('',#155,5.,45.);
#47=CONICAL_SURFACE('',#164,4.90000000000002,45.0000000000002);
#48=ADVANCED_FACE('',(#58,#59),#56,.T.);
#49=ADVANCED_FACE('',(#60,#61),#46,.T.);
#50=ADVANCED_FACE('',(#42),#38,.T.);
#51=ADVANCED_FACE('',(#43),#39,.T.);
#52=ADVANCED_FACE('',(#44),#40,.F.);
#53=ADVANCED_FACE('',(#62,#63),#57,.T.);
#54=ADVANCED_FACE('',(#45),#41,.F.);
#55=ADVANCED_FACE('',(#64,#65),#47,.T.);
#56=CYLINDRICAL_SURFACE('',#153,5.);
#57=CYLINDRICAL_SURFACE('',#161,5.);
#58=FACE_BOUND('',#66,.T.);
#59=FACE_BOUND('',#67,.T.);
#60=FACE_BOUND('',#68,.T.);
#61=FACE_BOUND('',#69,.T.);
#62=FACE_BOUND('',#73,.T.);
#63=FACE_BOUND('',#74,.T.);
#64=FACE_BOUND('',#76,.T.);
#65=FACE_BOUND('',#77,.T.);
#66=EDGE_LOOP('',(#78));
#67=EDGE_LOOP('',(#79));
#68=EDGE_LOOP('',(#80));
#69=EDGE_LOOP('',(#81));
#70=EDGE_LOOP('',(#82));
#71=EDGE_LOOP('',(#83));
#72=EDGE_LOOP('',(#84));
#73=EDGE_LOOP('',(#85));
#74=EDGE_LOOP('',(#86));
#75=EDGE_LOOP('',(#87));
#76=EDGE_LOOP('',(#88));
#77=EDGE_LOOP('',(#89));
#78=ORIENTED_EDGE('',*,*,#96,.F.);
#79=ORIENTED_EDGE('',*,*,#97,.F.);
#80=ORIENTED_EDGE('',*,*,#98,.F.);
#81=ORIENTED_EDGE('',*,*,#96,.T.);
#82=ORIENTED_EDGE('',*,*,#98,.T.);
#83=ORIENTED_EDGE('',*,*,#97,.T.);
#84=ORIENTED_EDGE('',*,*,#99,.F.);
#85=ORIENTED_EDGE('',*,*,#99,.T.);
#86=ORIENTED_EDGE('',*,*,#100,.T.);
#87=ORIENTED_EDGE('',*,*,#101,.F.);
#88=ORIENTED_EDGE('',*,*,#100,.F.);
#89=ORIENTED_EDGE('',*,*,#101,.T.);
#90=VERTEX_POINT('',#209);
#91=VERTEX_POINT('',#211);
#92=VERTEX_POINT('',#214);
#93=VERTEX_POINT('',#219);
#94=VERTEX_POINT('',#222);
#95=VERTEX_POINT('',#225);
#96=EDGE_CURVE('',#90,#90,#105,.T.);
#97=EDGE_CURVE('',#91,#91,#106,.T.);
#98=EDGE_CURVE('',#92,#92,#107,.T.);
#99=EDGE_CURVE('',#93,#93,#108,.T.);
#100=EDGE_CURVE('',#94,#94,#109,.T.);
#101=EDGE_CURVE('',#95,#95,#110,.T.);
#102=INVISIBILITY((#115,#116));
#103=CIRCLE('',#149,2.);
#104=CIRCLE('',#150,2.);
#105=CIRCLE('',#151,5.);
#106=CIRCLE('',#152,5.);
#107=CIRCLE('',#154,4.4);
#108=CIRCLE('',#158,5.);
#109=CIRCLE('',#160,5.);
#110=CIRCLE('',#162,4.90000000000002);
#111=PRESENTATION_LAYER_ASSIGNMENT('1','Layer 1',(#137,#138,#139,#140,#141,
#34,#35));
#112=STYLED_ITEM('',(#119),#137);
#113=STYLED_ITEM('',(#120),#138);
#114=STYLED_ITEM('',(#121),#139);
#115=STYLED_ITEM('',(#122),#140);
#116=STYLED_ITEM('',(#123),#141);
#117=STYLED_ITEM('',(#124),#34);
#118=STYLED_ITEM('',(#125),#35);
#119=PRESENTATION_STYLE_ASSIGNMENT((#126));
#120=PRESENTATION_STYLE_ASSIGNMENT((#127));
#121=PRESENTATION_STYLE_ASSIGNMENT((#128));
#122=PRESENTATION_STYLE_ASSIGNMENT((#129));
#123=PRESENTATION_STYLE_ASSIGNMENT((#130));
#124=PRESENTATION_STYLE_ASSIGNMENT((#22));
#125=PRESENTATION_STYLE_ASSIGNMENT((#23));
#126=CURVE_STYLE('',#132,POSITIVE_LENGTH_MEASURE(0.352777777777778),#131);
#127=CURVE_STYLE('',#133,POSITIVE_LENGTH_MEASURE(0.352777777777778),#131);
#128=CURVE_STYLE('',#134,POSITIVE_LENGTH_MEASURE(0.352777777777778),#131);
#129=CURVE_STYLE('',#135,POSITIVE_LENGTH_MEASURE(0.352777777777778),#131);
#130=CURVE_STYLE('',#136,POSITIVE_LENGTH_MEASURE(0.352777777777778),#131);
#131=DRAUGHTING_PRE_DEFINED_COLOUR('blue');
#132=DRAUGHTING_PRE_DEFINED_CURVE_FONT('continuous');
#133=DRAUGHTING_PRE_DEFINED_CURVE_FONT('continuous');
#134=DRAUGHTING_PRE_DEFINED_CURVE_FONT('continuous');
#135=DRAUGHTING_PRE_DEFINED_CURVE_FONT('dashed');
#136=DRAUGHTING_PRE_DEFINED_CURVE_FONT('dashed');
#137=TRIMMED_CURVE('',#142,(PARAMETER_VALUE(0.)),(PARAMETER_VALUE(1.)),.T.,
 .PARAMETER.);
#138=TRIMMED_CURVE('',#143,(PARAMETER_VALUE(0.)),(PARAMETER_VALUE(1.)),.T.,
 .PARAMETER.);
#139=TRIMMED_CURVE('',#144,(PARAMETER_VALUE(0.)),(PARAMETER_VALUE(1.)),.T.,
 .PARAMETER.);
#140=TRIMMED_CURVE('',#103,(PARAMETER_VALUE(180.)),(PARAMETER_VALUE(270.)),
 .T.,.PARAMETER.);
#141=TRIMMED_CURVE('',#104,(PARAMETER_VALUE(270.)),(PARAMETER_VALUE(360.)),
 .T.,.PARAMETER.);
#142=LINE('',#203,#145);
#143=LINE('',#204,#146);
#144=LINE('',#205,#147);
#145=VECTOR('',#167,15.899);
#146=VECTOR('',#168,4.90000000000003);
#147=VECTOR('',#169,0.141421356237266);
#148=AXIS2_PLACEMENT_3D('',#202,#165,#166);
#149=AXIS2_PLACEMENT_3D('',#206,#170,#171);
#150=AXIS2_PLACEMENT_3D('',#207,#172,#173);
#151=AXIS2_PLACEMENT_3D('',#208,#174,#175);
#152=AXIS2_PLACEMENT_3D('',#210,#176,#177);
#153=AXIS2_PLACEMENT_3D('',#212,#178,#179);
#154=AXIS2_PLACEMENT_3D('',#213,#180,#181);
#155=AXIS2_PLACEMENT_3D('',#215,#182,#183);
#156=AXIS2_PLACEMENT_3D('',#216,#184,#185);
#157=AXIS2_PLACEMENT_3D('',#217,#186,#187);
#158=AXIS2_PLACEMENT_3D('',#218,#188,#189);
#159=AXIS2_PLACEMENT_3D('',#220,#190,#191);
#160=AXIS2_PLACEMENT_3D('',#221,#192,#193);
#161=AXIS2_PLACEMENT_3D('',#223,#194,#195);
#162=AXIS2_PLACEMENT_3D('',#224,#196,#197);
#163=AXIS2_PLACEMENT_3D('',#226,#198,#199);
#164=AXIS2_PLACEMENT_3D('',#227,#200,#201);
#165=DIRECTION('',(0.,0.,1.));
#166=DIRECTION('',(1.,0.,0.));
#167=DIRECTION('',(0.,0.,1.));
#168=DIRECTION('',(1.,1.81260901979616E-016,0.));
#169=DIRECTION('',(0.707106781186573,0.,0.707106781186522));
#170=DIRECTION('',(0.900114100882427,-0.435654226873355,0.));
#171=DIRECTION('',(0.435654226873355,0.900114100882427,0.));
#172=DIRECTION('',(0.900114100882427,-0.435654226873355,0.));
#173=DIRECTION('',(0.435654226873355,0.900114100882427,0.));
#174=DIRECTION('',(0.,0.,1.));
#175=DIRECTION('',(0.501460463603872,-0.865180561179104,0.));
#176=DIRECTION('',(0.,0.,-1.));
#177=DIRECTION('',(-0.501460463603872,0.865180561179104,0.));
#178=DIRECTION('',(0.,0.,1.));
#179=DIRECTION('',(0.501460463603872,-0.865180561179104,0.));
#180=DIRECTION('',(0.,0.,1.));
#181=DIRECTION('',(0.501460463603872,-0.865180561179104,0.));
#182=DIRECTION('',(0.,0.,-1.));
#183=DIRECTION('',(-0.501460463603872,0.865180561179104,6.59151768545914E-017));
#184=DIRECTION('',(0.,0.,1.));
#185=DIRECTION('',(0.501460463603872,-0.865180561179104,0.));
#186=DIRECTION('',(0.,0.,-1.));
#187=DIRECTION('',(-0.501460463603872,0.865180561179104,0.));
#188=DIRECTION('',(0.,0.,-1.));
#189=DIRECTION('',(-0.501460463603872,0.865180561179104,0.));
#190=DIRECTION('',(0.,0.,-1.));
#191=DIRECTION('',(-0.501460463603872,0.865180561179104,0.));
#192=DIRECTION('',(0.,0.,1.));
#193=DIRECTION('',(0.501460463603872,-0.865180561179104,0.));
#194=DIRECTION('',(0.,0.,1.));
#195=DIRECTION('',(0.501460463603872,-0.865180561179104,0.));
#196=DIRECTION('',(0.,0.,1.));
#197=DIRECTION('',(0.501460463603872,-0.865180561179104,0.));
#198=DIRECTION('',(0.,0.,1.));
#199=DIRECTION('',(0.501460463603872,-0.865180561179104,0.));
#200=DIRECTION('',(0.,0.,1.));
#201=DIRECTION('',(0.501460463603872,-0.865180561179104,-5.52404729139789E-017));
#202=CARTESIAN_POINT('',(0.,0.,0.));
#203=CARTESIAN_POINT('',(5.,0.,-65.9));
#204=CARTESIAN_POINT('',(-8.16144291405819E-031,6.39983030482094E-031,-66.));
#205=CARTESIAN_POINT('',(4.90000000000003,0.,-66.));
#206=CARTESIAN_POINT('',(-2.61392536124014,-5.40068460529458,-98.0000000000001));
#207=CARTESIAN_POINT('',(2.61392536124014,5.40068460529458,-98.0000000000001));
#208=CARTESIAN_POINT('',(0.,0.,-0.6));
#209=CARTESIAN_POINT('',(2.50730231801936,-4.32590280589552,-0.6));
#210=CARTESIAN_POINT('',(0.,0.,-50.));
#211=CARTESIAN_POINT('',(-2.50730231801936,4.32590280589552,-50.));
#212=CARTESIAN_POINT('',(0.,0.,0.));
#213=CARTESIAN_POINT('',(0.,0.,4.70001641772443E-017));
#214=CARTESIAN_POINT('',(2.20642603985704,-3.80679446918806,4.70001641772443E-017));
#215=CARTESIAN_POINT('',(0.,0.,-0.6));
#216=CARTESIAN_POINT('',(-8.90772724211558E-016,1.53686940716665E-015,8.03647919695936E-016));
#217=CARTESIAN_POINT('',(0.,0.,-50.));
#218=CARTESIAN_POINT('',(0.,0.,-50.));
#219=CARTESIAN_POINT('',(-2.50730231801936,4.32590280589552,-50.));
#220=CARTESIAN_POINT('',(0.,0.,-50.));
#221=CARTESIAN_POINT('',(0.,0.,-65.9));
#222=CARTESIAN_POINT('',(2.50730231801936,-4.32590280589552,-65.9));
#223=CARTESIAN_POINT('',(0.,0.,0.));
#224=CARTESIAN_POINT('',(0.,0.,-66.));
#225=CARTESIAN_POINT('',(2.45715627165898,-4.23938474977763,-66.));
#226=CARTESIAN_POINT('',(1.78154544842312E-015,-3.0737388143333E-015,-66.));
#227=CARTESIAN_POINT('',(0.,0.,-66.));
#228=MECHANICAL_DESIGN_GEOMETRIC_PRESENTATION_REPRESENTATION('',(#112,#113,
#114,#115,#116,#117,#118),#229);
#229=(
GEOMETRIC_REPRESENTATION_CONTEXT(3)
GLOBAL_UNCERTAINTY_ASSIGNED_CONTEXT((#230))
GLOBAL_UNIT_ASSIGNED_CONTEXT((#236,#232,#231))
REPRESENTATION_CONTEXT('CAD_7156461_MOD_003_003_FR',
'TOP_LEVEL_ASSEMBLY_PART')
);
#230=UNCERTAINTY_MEASURE_WITH_UNIT(LENGTH_MEASURE(2.E-005),#236,
'DISTANCE_ACCURACY_VALUE','Maximum Tolerance applied to model');
#231=(
NAMED_UNIT(*)
SI_UNIT($,.STERADIAN.)
SOLID_ANGLE_UNIT()
);
#232=(
CONVERSION_BASED_UNIT('DEGREE',#234)
NAMED_UNIT(#233)
PLANE_ANGLE_UNIT()
);
#233=DIMENSIONAL_EXPONENTS(0.,0.,0.,0.,0.,0.,0.);
#234=PLANE_ANGLE_MEASURE_WITH_UNIT(PLANE_ANGLE_MEASURE(0.0174532925),#235);
#235=(
NAMED_UNIT(*)
PLANE_ANGLE_UNIT()
SI_UNIT($,.RADIAN.)
);
#236=(
LENGTH_UNIT()
NAMED_UNIT(*)
SI_UNIT(.MILLI.,.METRE.)
);
ENDSEC;
END-ISO-10303-21;
