ISO-10303-21;
HEADER;
/* Generated by software containing ST-Developer
 * from STEP Tools, Inc. (www.steptools.com) 
 */
/* OPTION: using custom schema-name function */

FILE_DESCRIPTION(
/* description */ (''),
/* implementation_level */ '2;1');

FILE_NAME(
/* name */ 'SVVBN1212F11_SIM.stp',
/* time_stamp */ '2023-02-04T10:13:04+01:00',
/* author */ (''),
/* organization */ (''),
/* preprocessor_version */ 'ST-DEVELOPER v18.102',
/* originating_system */ 'SIEMENS PLM Software NX 2027',
/* authorisation */ '');

FILE_SCHEMA (('AUTOMOTIVE_DESIGN { 1 0 10303 214 3 1 1 1 }'));
ENDSEC;

DATA;
#10=SHAPE_REPRESENTATION_RELATIONSHIP('None',
'relationship between model1-None and model1-None',#22,#11);
#11=ADVANCED_BREP_SHAPE_REPRESENTATION('model1-None',(#40,#41),#555);
#12=SHAPE_DEFINITION_REPRESENTATION(#13,#22);
#13=PRODUCT_DEFINITION_SHAPE('','',#14);
#14=PRODUCT_DEFINITION(' ','',#16,#15);
#15=PRODUCT_DEFINITION_CONTEXT('part definition',#21,'design');
#16=PRODUCT_DEFINITION_FORMATION_WITH_SPECIFIED_SOURCE(' ',' ',#18,
 .NOT_KNOWN.);
#17=PRODUCT_RELATED_PRODUCT_CATEGORY('part','',(#18));
#18=PRODUCT('model1','model1',' ',(#19));
#19=PRODUCT_CONTEXT(' ',#21,'mechanical');
#20=APPLICATION_PROTOCOL_DEFINITION('international standard',
'automotive_design',2010,#21);
#21=APPLICATION_CONTEXT(
'core data for automotive mechanical design processes');
#22=SHAPE_REPRESENTATION('model1-None',(#350),#555);
#23=PRESENTATION_LAYER_ASSIGNMENT('1','Layer 1',(#40,#41));
#24=STYLED_ITEM('',(#26),#40);
#25=STYLED_ITEM('',(#27),#41);
#26=PRESENTATION_STYLE_ASSIGNMENT((#28));
#27=PRESENTATION_STYLE_ASSIGNMENT((#29));
#28=SURFACE_STYLE_USAGE(.BOTH.,#30);
#29=SURFACE_STYLE_USAGE(.BOTH.,#31);
#30=SURFACE_SIDE_STYLE('',(#32));
#31=SURFACE_SIDE_STYLE('',(#33));
#32=SURFACE_STYLE_FILL_AREA(#34);
#33=SURFACE_STYLE_FILL_AREA(#35);
#34=FILL_AREA_STYLE('',(#36));
#35=FILL_AREA_STYLE('',(#37));
#36=FILL_AREA_STYLE_COLOUR('',#38);
#37=FILL_AREA_STYLE_COLOUR('',#39);
#38=COLOUR_RGB('light gray',0.8,0.8,0.8);
#39=COLOUR_RGB('medium gray',0.490196078431373,0.490196078431373,0.490196078431373);
#40=MANIFOLD_SOLID_BREP('',#42);
#41=MANIFOLD_SOLID_BREP('',#43);
#42=CLOSED_SHELL('',(#139,#140,#141,#142,#143,#144,#145,#146,#147,#148,
#149));
#43=CLOSED_SHELL('',(#150,#151,#152,#153,#154,#155,#156,#157));
#44=TOROIDAL_SURFACE('',#369,2.9,1.5);
#45=CONICAL_SURFACE('',#358,0.4,4.99999999999999);
#46=CONICAL_SURFACE('',#363,0.4,4.99999999999999);
#47=PLANE('',#354);
#48=PLANE('',#355);
#49=PLANE('',#359);
#50=PLANE('',#360);
#51=PLANE('',#364);
#52=PLANE('',#366);
#53=PLANE('',#370);
#54=PLANE('',#371);
#55=PLANE('',#372);
#56=PLANE('',#373);
#57=PLANE('',#374);
#58=PLANE('',#375);
#59=PLANE('',#376);
#60=PLANE('',#377);
#61=FACE_OUTER_BOUND('',#172,.T.);
#62=FACE_OUTER_BOUND('',#173,.T.);
#63=FACE_OUTER_BOUND('',#174,.T.);
#64=FACE_OUTER_BOUND('',#175,.T.);
#65=FACE_OUTER_BOUND('',#176,.T.);
#66=FACE_OUTER_BOUND('',#177,.T.);
#67=FACE_OUTER_BOUND('',#186,.T.);
#68=FACE_OUTER_BOUND('',#187,.T.);
#69=FACE_OUTER_BOUND('',#188,.T.);
#70=FACE_OUTER_BOUND('',#189,.T.);
#71=FACE_OUTER_BOUND('',#190,.T.);
#72=FACE_OUTER_BOUND('',#191,.T.);
#73=FACE_OUTER_BOUND('',#192,.T.);
#74=FACE_OUTER_BOUND('',#193,.T.);
#75=LINE('',#472,#107);
#76=LINE('',#475,#108);
#77=LINE('',#477,#109);
#78=LINE('',#479,#110);
#79=LINE('',#481,#111);
#80=LINE('',#483,#112);
#81=LINE('',#485,#113);
#82=LINE('',#489,#114);
#83=LINE('',#493,#115);
#84=LINE('',#495,#116);
#85=LINE('',#497,#117);
#86=LINE('',#499,#118);
#87=LINE('',#501,#119);
#88=LINE('',#503,#120);
#89=LINE('',#516,#121);
#90=LINE('',#519,#122);
#91=LINE('',#521,#123);
#92=LINE('',#523,#124);
#93=LINE('',#525,#125);
#94=LINE('',#528,#126);
#95=LINE('',#530,#127);
#96=LINE('',#532,#128);
#97=LINE('',#534,#129);
#98=LINE('',#535,#130);
#99=LINE('',#537,#131);
#100=LINE('',#539,#132);
#101=LINE('',#541,#133);
#102=LINE('',#543,#134);
#103=LINE('',#545,#135);
#104=LINE('',#547,#136);
#105=LINE('',#549,#137);
#106=LINE('',#551,#138);
#107=VECTOR('',#386,1.);
#108=VECTOR('',#387,1.);
#109=VECTOR('',#388,1.);
#110=VECTOR('',#389,1.);
#111=VECTOR('',#392,1.);
#112=VECTOR('',#393,1.);
#113=VECTOR('',#394,1.);
#114=VECTOR('',#399,1.);
#115=VECTOR('',#404,1.);
#116=VECTOR('',#405,1.);
#117=VECTOR('',#406,1.);
#118=VECTOR('',#409,1.);
#119=VECTOR('',#410,1.);
#120=VECTOR('',#411,1.);
#121=VECTOR('',#432,1.);
#122=VECTOR('',#433,1.);
#123=VECTOR('',#434,1.);
#124=VECTOR('',#435,1.);
#125=VECTOR('',#438,1.);
#126=VECTOR('',#439,1.);
#127=VECTOR('',#440,1.);
#128=VECTOR('',#441,1.);
#129=VECTOR('',#444,1.);
#130=VECTOR('',#445,1.);
#131=VECTOR('',#446,1.);
#132=VECTOR('',#447,1.);
#133=VECTOR('',#450,1.);
#134=VECTOR('',#453,1.);
#135=VECTOR('',#454,1.);
#136=VECTOR('',#457,1.);
#137=VECTOR('',#458,1.);
#138=VECTOR('',#461,1.);
#139=ADVANCED_FACE('',(#160,#161),#158,.F.);
#140=ADVANCED_FACE('',(#61),#47,.T.);
#141=ADVANCED_FACE('',(#62),#48,.T.);
#142=ADVANCED_FACE('',(#63),#45,.T.);
#143=ADVANCED_FACE('',(#64),#49,.T.);
#144=ADVANCED_FACE('',(#65),#50,.T.);
#145=ADVANCED_FACE('',(#66),#46,.T.);
#146=ADVANCED_FACE('',(#162,#163),#51,.T.);
#147=ADVANCED_FACE('',(#164,#165),#52,.F.);
#148=ADVANCED_FACE('',(#166,#167),#159,.F.);
#149=ADVANCED_FACE('',(#168,#169),#44,.T.);
#150=ADVANCED_FACE('',(#67),#53,.F.);
#151=ADVANCED_FACE('',(#68),#54,.F.);
#152=ADVANCED_FACE('',(#69),#55,.T.);
#153=ADVANCED_FACE('',(#70),#56,.F.);
#154=ADVANCED_FACE('',(#71),#57,.F.);
#155=ADVANCED_FACE('',(#72),#58,.F.);
#156=ADVANCED_FACE('',(#73),#59,.F.);
#157=ADVANCED_FACE('',(#74),#60,.F.);
#158=CYLINDRICAL_SURFACE('',#353,1.4);
#159=CYLINDRICAL_SURFACE('',#368,1.9);
#160=FACE_BOUND('',#170,.T.);
#161=FACE_BOUND('',#171,.T.);
#162=FACE_BOUND('',#178,.T.);
#163=FACE_BOUND('',#179,.T.);
#164=FACE_BOUND('',#180,.T.);
#165=FACE_BOUND('',#181,.T.);
#166=FACE_BOUND('',#182,.T.);
#167=FACE_BOUND('',#183,.T.);
#168=FACE_BOUND('',#184,.T.);
#169=FACE_BOUND('',#185,.T.);
#170=EDGE_LOOP('',(#194));
#171=EDGE_LOOP('',(#195));
#172=EDGE_LOOP('',(#196,#197,#198,#199));
#173=EDGE_LOOP('',(#200,#201,#202,#203));
#174=EDGE_LOOP('',(#204,#205,#206,#207));
#175=EDGE_LOOP('',(#208,#209,#210,#211));
#176=EDGE_LOOP('',(#212,#213,#214,#215));
#177=EDGE_LOOP('',(#216,#217,#218,#219));
#178=EDGE_LOOP('',(#220));
#179=EDGE_LOOP('',(#221,#222,#223,#224,#225,#226));
#180=EDGE_LOOP('',(#227));
#181=EDGE_LOOP('',(#228,#229,#230,#231,#232,#233));
#182=EDGE_LOOP('',(#234));
#183=EDGE_LOOP('',(#235));
#184=EDGE_LOOP('',(#236));
#185=EDGE_LOOP('',(#237));
#186=EDGE_LOOP('',(#238,#239,#240,#241));
#187=EDGE_LOOP('',(#242,#243,#244,#245));
#188=EDGE_LOOP('',(#246,#247,#248,#249,#250,#251));
#189=EDGE_LOOP('',(#252,#253,#254,#255));
#190=EDGE_LOOP('',(#256,#257,#258,#259));
#191=EDGE_LOOP('',(#260,#261,#262,#263));
#192=EDGE_LOOP('',(#264,#265,#266,#267));
#193=EDGE_LOOP('',(#268,#269,#270,#271,#272,#273));
#194=ORIENTED_EDGE('',*,*,#302,.T.);
#195=ORIENTED_EDGE('',*,*,#303,.F.);
#196=ORIENTED_EDGE('',*,*,#304,.T.);
#197=ORIENTED_EDGE('',*,*,#305,.F.);
#198=ORIENTED_EDGE('',*,*,#306,.F.);
#199=ORIENTED_EDGE('',*,*,#307,.T.);
#200=ORIENTED_EDGE('',*,*,#308,.T.);
#201=ORIENTED_EDGE('',*,*,#309,.F.);
#202=ORIENTED_EDGE('',*,*,#310,.F.);
#203=ORIENTED_EDGE('',*,*,#305,.T.);
#204=ORIENTED_EDGE('',*,*,#311,.T.);
#205=ORIENTED_EDGE('',*,*,#312,.F.);
#206=ORIENTED_EDGE('',*,*,#313,.F.);
#207=ORIENTED_EDGE('',*,*,#309,.T.);
#208=ORIENTED_EDGE('',*,*,#314,.T.);
#209=ORIENTED_EDGE('',*,*,#315,.F.);
#210=ORIENTED_EDGE('',*,*,#316,.F.);
#211=ORIENTED_EDGE('',*,*,#312,.T.);
#212=ORIENTED_EDGE('',*,*,#317,.T.);
#213=ORIENTED_EDGE('',*,*,#318,.F.);
#214=ORIENTED_EDGE('',*,*,#319,.F.);
#215=ORIENTED_EDGE('',*,*,#315,.T.);
#216=ORIENTED_EDGE('',*,*,#320,.T.);
#217=ORIENTED_EDGE('',*,*,#307,.F.);
#218=ORIENTED_EDGE('',*,*,#321,.F.);
#219=ORIENTED_EDGE('',*,*,#318,.T.);
#220=ORIENTED_EDGE('',*,*,#303,.T.);
#221=ORIENTED_EDGE('',*,*,#306,.T.);
#222=ORIENTED_EDGE('',*,*,#310,.T.);
#223=ORIENTED_EDGE('',*,*,#313,.T.);
#224=ORIENTED_EDGE('',*,*,#316,.T.);
#225=ORIENTED_EDGE('',*,*,#319,.T.);
#226=ORIENTED_EDGE('',*,*,#321,.T.);
#227=ORIENTED_EDGE('',*,*,#322,.F.);
#228=ORIENTED_EDGE('',*,*,#304,.F.);
#229=ORIENTED_EDGE('',*,*,#320,.F.);
#230=ORIENTED_EDGE('',*,*,#317,.F.);
#231=ORIENTED_EDGE('',*,*,#314,.F.);
#232=ORIENTED_EDGE('',*,*,#311,.F.);
#233=ORIENTED_EDGE('',*,*,#308,.F.);
#234=ORIENTED_EDGE('',*,*,#323,.T.);
#235=ORIENTED_EDGE('',*,*,#322,.T.);
#236=ORIENTED_EDGE('',*,*,#302,.F.);
#237=ORIENTED_EDGE('',*,*,#323,.F.);
#238=ORIENTED_EDGE('',*,*,#324,.T.);
#239=ORIENTED_EDGE('',*,*,#325,.T.);
#240=ORIENTED_EDGE('',*,*,#326,.F.);
#241=ORIENTED_EDGE('',*,*,#327,.T.);
#242=ORIENTED_EDGE('',*,*,#328,.T.);
#243=ORIENTED_EDGE('',*,*,#329,.T.);
#244=ORIENTED_EDGE('',*,*,#330,.F.);
#245=ORIENTED_EDGE('',*,*,#331,.F.);
#246=ORIENTED_EDGE('',*,*,#332,.T.);
#247=ORIENTED_EDGE('',*,*,#324,.F.);
#248=ORIENTED_EDGE('',*,*,#333,.F.);
#249=ORIENTED_EDGE('',*,*,#334,.F.);
#250=ORIENTED_EDGE('',*,*,#335,.F.);
#251=ORIENTED_EDGE('',*,*,#329,.F.);
#252=ORIENTED_EDGE('',*,*,#325,.F.);
#253=ORIENTED_EDGE('',*,*,#332,.F.);
#254=ORIENTED_EDGE('',*,*,#328,.F.);
#255=ORIENTED_EDGE('',*,*,#336,.F.);
#256=ORIENTED_EDGE('',*,*,#335,.T.);
#257=ORIENTED_EDGE('',*,*,#337,.F.);
#258=ORIENTED_EDGE('',*,*,#338,.F.);
#259=ORIENTED_EDGE('',*,*,#330,.T.);
#260=ORIENTED_EDGE('',*,*,#334,.T.);
#261=ORIENTED_EDGE('',*,*,#339,.F.);
#262=ORIENTED_EDGE('',*,*,#340,.F.);
#263=ORIENTED_EDGE('',*,*,#337,.T.);
#264=ORIENTED_EDGE('',*,*,#333,.T.);
#265=ORIENTED_EDGE('',*,*,#327,.F.);
#266=ORIENTED_EDGE('',*,*,#341,.F.);
#267=ORIENTED_EDGE('',*,*,#339,.T.);
#268=ORIENTED_EDGE('',*,*,#326,.T.);
#269=ORIENTED_EDGE('',*,*,#336,.T.);
#270=ORIENTED_EDGE('',*,*,#331,.T.);
#271=ORIENTED_EDGE('',*,*,#338,.T.);
#272=ORIENTED_EDGE('',*,*,#340,.T.);
#273=ORIENTED_EDGE('',*,*,#341,.T.);
#274=VERTEX_POINT('',#468);
#275=VERTEX_POINT('',#470);
#276=VERTEX_POINT('',#473);
#277=VERTEX_POINT('',#474);
#278=VERTEX_POINT('',#476);
#279=VERTEX_POINT('',#478);
#280=VERTEX_POINT('',#482);
#281=VERTEX_POINT('',#484);
#282=VERTEX_POINT('',#488);
#283=VERTEX_POINT('',#490);
#284=VERTEX_POINT('',#494);
#285=VERTEX_POINT('',#496);
#286=VERTEX_POINT('',#500);
#287=VERTEX_POINT('',#502);
#288=VERTEX_POINT('',#510);
#289=VERTEX_POINT('',#513);
#290=VERTEX_POINT('',#517);
#291=VERTEX_POINT('',#518);
#292=VERTEX_POINT('',#520);
#293=VERTEX_POINT('',#522);
#294=VERTEX_POINT('',#526);
#295=VERTEX_POINT('',#527);
#296=VERTEX_POINT('',#529);
#297=VERTEX_POINT('',#531);
#298=VERTEX_POINT('',#536);
#299=VERTEX_POINT('',#538);
#300=VERTEX_POINT('',#544);
#301=VERTEX_POINT('',#548);
#302=EDGE_CURVE('',#274,#274,#342,.T.);
#303=EDGE_CURVE('',#275,#275,#343,.T.);
#304=EDGE_CURVE('',#276,#277,#75,.T.);
#305=EDGE_CURVE('',#278,#277,#76,.T.);
#306=EDGE_CURVE('',#279,#278,#77,.T.);
#307=EDGE_CURVE('',#279,#276,#78,.T.);
#308=EDGE_CURVE('',#277,#280,#79,.T.);
#309=EDGE_CURVE('',#281,#280,#80,.T.);
#310=EDGE_CURVE('',#278,#281,#81,.T.);
#311=EDGE_CURVE('',#280,#282,#344,.T.);
#312=EDGE_CURVE('',#283,#282,#82,.T.);
#313=EDGE_CURVE('',#281,#283,#345,.T.);
#314=EDGE_CURVE('',#282,#284,#83,.T.);
#315=EDGE_CURVE('',#285,#284,#84,.T.);
#316=EDGE_CURVE('',#283,#285,#85,.T.);
#317=EDGE_CURVE('',#284,#286,#86,.T.);
#318=EDGE_CURVE('',#287,#286,#87,.T.);
#319=EDGE_CURVE('',#285,#287,#88,.T.);
#320=EDGE_CURVE('',#286,#276,#346,.T.);
#321=EDGE_CURVE('',#287,#279,#347,.T.);
#322=EDGE_CURVE('',#288,#288,#348,.T.);
#323=EDGE_CURVE('',#289,#289,#349,.T.);
#324=EDGE_CURVE('',#290,#291,#89,.T.);
#325=EDGE_CURVE('',#291,#292,#90,.T.);
#326=EDGE_CURVE('',#293,#292,#91,.T.);
#327=EDGE_CURVE('',#293,#290,#92,.T.);
#328=EDGE_CURVE('',#294,#295,#93,.T.);
#329=EDGE_CURVE('',#295,#296,#94,.T.);
#330=EDGE_CURVE('',#297,#296,#95,.T.);
#331=EDGE_CURVE('',#294,#297,#96,.T.);
#332=EDGE_CURVE('',#295,#291,#97,.T.);
#333=EDGE_CURVE('',#298,#290,#98,.T.);
#334=EDGE_CURVE('',#299,#298,#99,.T.);
#335=EDGE_CURVE('',#296,#299,#100,.T.);
#336=EDGE_CURVE('',#292,#294,#101,.T.);
#337=EDGE_CURVE('',#300,#299,#102,.T.);
#338=EDGE_CURVE('',#297,#300,#103,.T.);
#339=EDGE_CURVE('',#301,#298,#104,.T.);
#340=EDGE_CURVE('',#300,#301,#105,.T.);
#341=EDGE_CURVE('',#301,#293,#106,.T.);
#342=CIRCLE('',#351,1.4);
#343=CIRCLE('',#352,1.4);
#344=CIRCLE('',#356,0.4);
#345=CIRCLE('',#357,0.121786049987563);
#346=CIRCLE('',#361,0.4);
#347=CIRCLE('',#362,0.121786049987562);
#348=CIRCLE('',#365,1.9);
#349=CIRCLE('',#367,1.9);
#350=AXIS2_PLACEMENT_3D('',#466,#378,#379);
#351=AXIS2_PLACEMENT_3D('',#467,#380,#381);
#352=AXIS2_PLACEMENT_3D('',#469,#382,#383);
#353=AXIS2_PLACEMENT_3D('',#471,#384,#385);
#354=AXIS2_PLACEMENT_3D('',#480,#390,#391);
#355=AXIS2_PLACEMENT_3D('',#486,#395,#396);
#356=AXIS2_PLACEMENT_3D('',#487,#397,#398);
#357=AXIS2_PLACEMENT_3D('',#491,#400,#401);
#358=AXIS2_PLACEMENT_3D('',#492,#402,#403);
#359=AXIS2_PLACEMENT_3D('',#498,#407,#408);
#360=AXIS2_PLACEMENT_3D('',#504,#412,#413);
#361=AXIS2_PLACEMENT_3D('',#505,#414,#415);
#362=AXIS2_PLACEMENT_3D('',#506,#416,#417);
#363=AXIS2_PLACEMENT_3D('',#507,#418,#419);
#364=AXIS2_PLACEMENT_3D('',#508,#420,#421);
#365=AXIS2_PLACEMENT_3D('',#509,#422,#423);
#366=AXIS2_PLACEMENT_3D('',#511,#424,#425);
#367=AXIS2_PLACEMENT_3D('',#512,#426,#427);
#368=AXIS2_PLACEMENT_3D('',#514,#428,#429);
#369=AXIS2_PLACEMENT_3D('',#515,#430,#431);
#370=AXIS2_PLACEMENT_3D('',#524,#436,#437);
#371=AXIS2_PLACEMENT_3D('',#533,#442,#443);
#372=AXIS2_PLACEMENT_3D('',#540,#448,#449);
#373=AXIS2_PLACEMENT_3D('',#542,#451,#452);
#374=AXIS2_PLACEMENT_3D('',#546,#455,#456);
#375=AXIS2_PLACEMENT_3D('',#550,#459,#460);
#376=AXIS2_PLACEMENT_3D('',#552,#462,#463);
#377=AXIS2_PLACEMENT_3D('',#553,#464,#465);
#378=DIRECTION('',(0.,0.,1.));
#379=DIRECTION('',(1.,0.,0.));
#380=DIRECTION('',(0.,0.,1.));
#381=DIRECTION('',(1.,0.,0.));
#382=DIRECTION('',(0.,0.,1.));
#383=DIRECTION('',(1.,0.,0.));
#384=DIRECTION('',(0.,0.,1.));
#385=DIRECTION('',(1.,0.,0.));
#386=DIRECTION('',(0.953716950748227,0.300705799504273,0.));
#387=DIRECTION('',(-3.63644339552299E-18,0.0913508491369664,0.995818769838144));
#388=DIRECTION('',(0.953716950748227,0.300705799504273,0.));
#389=DIRECTION('',(-0.0262082373043232,0.0831219092134934,0.996194698091746));
#390=DIRECTION('',(-0.299561523151596,0.95008776981561,-0.0871557427476581));
#391=DIRECTION('',(-0.953716950748227,-0.300705799504273,0.));
#392=DIRECTION('',(0.953716950748227,-0.300705799504273,0.));
#393=DIRECTION('',(0.0262082373043231,0.0831219092134934,0.996194698091746));
#394=DIRECTION('',(0.953716950748227,-0.300705799504273,0.));
#395=DIRECTION('',(0.299561523151597,0.95008776981561,-0.0871557427476581));
#396=DIRECTION('',(-0.953716950748227,0.300705799504273,0.));
#397=DIRECTION('',(0.,0.,-1.));
#398=DIRECTION('',(1.,1.22464679914737E-16,0.));
#399=DIRECTION('',(0.0262082373043233,-0.0831219092134934,0.996194698091746));
#400=DIRECTION('',(0.,0.,-1.));
#401=DIRECTION('',(-1.00000000000001,0.,0.));
#402=DIRECTION('',(0.,0.,1.));
#403=DIRECTION('',(1.,1.22464679914735E-16,0.));
#404=DIRECTION('',(-0.953716950748227,-0.300705799504273,0.));
#405=DIRECTION('',(-4.49204387736564E-17,-0.0913508491369664,0.995818769838144));
#406=DIRECTION('',(-0.953716950748227,-0.300705799504273,0.));
#407=DIRECTION('',(0.299561523151597,-0.95008776981561,-0.0871557427476581));
#408=DIRECTION('',(0.953716950748227,0.300705799504273,0.));
#409=DIRECTION('',(-0.953716950748227,0.300705799504274,0.));
#410=DIRECTION('',(-0.0262082373043231,-0.0831219092134934,0.996194698091746));
#411=DIRECTION('',(-0.953716950748227,0.300705799504274,0.));
#412=DIRECTION('',(-0.299561523151597,-0.95008776981561,-0.0871557427476581));
#413=DIRECTION('',(0.953716950748227,-0.300705799504274,0.));
#414=DIRECTION('',(0.,0.,-1.));
#415=DIRECTION('',(1.,1.22464679914737E-16,0.));
#416=DIRECTION('',(0.,0.,-1.));
#417=DIRECTION('',(-1.,0.,0.));
#418=DIRECTION('',(0.,0.,1.));
#419=DIRECTION('',(1.,1.22464679914735E-16,0.));
#420=DIRECTION('',(0.,0.,-1.));
#421=DIRECTION('',(-1.,0.,0.));
#422=DIRECTION('',(0.,0.,1.));
#423=DIRECTION('',(1.,0.,0.));
#424=DIRECTION('',(0.,0.,-1.));
#425=DIRECTION('',(-1.,0.,0.));
#426=DIRECTION('',(0.,0.,-1.));
#427=DIRECTION('',(1.,0.,0.));
#428=DIRECTION('',(0.,0.,1.));
#429=DIRECTION('',(1.,0.,0.));
#430=DIRECTION('',(0.,0.,1.));
#431=DIRECTION('',(1.,0.,0.));
#432=DIRECTION('',(-0.953716950748228,0.300705799504269,0.));
#433=DIRECTION('',(0.,0.,-1.));
#434=DIRECTION('',(-0.953716950748228,0.300705799504269,0.));
#435=DIRECTION('',(0.,0.,1.));
#436=DIRECTION('',(0.300705799504269,0.953716950748228,0.));
#437=DIRECTION('',(-0.953716950748228,0.300705799504269,0.));
#438=DIRECTION('',(0.,0.,1.));
#439=DIRECTION('',(0.953716950748201,0.300705799504354,0.));
#440=DIRECTION('',(0.,0.,1.));
#441=DIRECTION('',(0.953716950748201,0.300705799504354,0.));
#442=DIRECTION('',(0.300705799504354,-0.953716950748201,0.));
#443=DIRECTION('',(0.953716950748201,0.300705799504354,0.));
#444=DIRECTION('',(0.,-1.,0.));
#445=DIRECTION('',(-1.,-1.13098074802508E-16,0.));
#446=DIRECTION('',(7.40148683083438E-17,-1.,0.));
#447=DIRECTION('',(1.,-4.5951387366633E-21,0.));
#448=DIRECTION('',(0.,0.,1.));
#449=DIRECTION('',(1.,0.,0.));
#450=DIRECTION('',(0.,1.,0.));
#451=DIRECTION('',(1.,0.,0.));
#452=DIRECTION('',(0.,0.,-1.));
#453=DIRECTION('',(0.,0.,1.));
#454=DIRECTION('',(1.,-4.5951387366633E-21,0.));
#455=DIRECTION('',(-4.5951387366633E-21,-1.,0.));
#456=DIRECTION('',(1.,0.,0.));
#457=DIRECTION('',(0.,0.,1.));
#458=DIRECTION('',(7.40148683083438E-17,-1.,0.));
#459=DIRECTION('',(-1.,-7.40148683083438E-17,0.));
#460=DIRECTION('',(6.93889390390723E-17,-1.,0.));
#461=DIRECTION('',(-1.,-1.13098074802508E-16,0.));
#462=DIRECTION('',(-1.13098074802508E-16,1.,0.));
#463=DIRECTION('',(-1.,-1.12757025938492E-16,0.));
#464=DIRECTION('',(0.,0.,1.));
#465=DIRECTION('',(1.,0.,0.));
#466=CARTESIAN_POINT('',(0.,0.,0.));
#467=CARTESIAN_POINT('',(10.5584927368682,-1.82145964977565E-14,-1.61803398874989));
#468=CARTESIAN_POINT('',(11.9584927368682,-1.82145964977565E-14,-1.61803398874989));
#469=CARTESIAN_POINT('',(10.5584927368682,-1.82145964977565E-14,-3.18));
#470=CARTESIAN_POINT('',(11.9584927368682,-1.82145964977565E-14,-3.18));
#471=CARTESIAN_POINT('',(10.5584927368682,-1.82145964977565E-14,-3.18));
#472=CARTESIAN_POINT('',(1.2099214895675,0.381486780299282,0.));
#473=CARTESIAN_POINT('',(1.2099214895675,0.381486780299282,0.));
#474=CARTESIAN_POINT('',(10.5584927368682,3.32907997232206,0.));
#475=CARTESIAN_POINT('',(10.5584927368682,3.32907997232206,0.));
#476=CARTESIAN_POINT('',(10.5584927368682,3.03736454271355,-3.18));
#477=CARTESIAN_POINT('',(1.2935820378393,0.116149420237793,-3.18));
#478=CARTESIAN_POINT('',(1.2935820378393,0.116149420237793,-3.18));
#479=CARTESIAN_POINT('',(1.2099214895675,0.381486780299282,0.));
#480=CARTESIAN_POINT('',(1.2099214895675,0.381486780299282,0.));
#481=CARTESIAN_POINT('',(10.5584927368682,3.32907997232206,0.));
#482=CARTESIAN_POINT('',(19.9070639841688,0.381486780299272,0.));
#483=CARTESIAN_POINT('',(19.9070639841688,0.381486780299272,-5.17741761555245E-17));
#484=CARTESIAN_POINT('',(19.8234034358971,0.116149420237793,-3.18));
#485=CARTESIAN_POINT('',(10.4748321885964,3.06374261226058,-3.18));
#486=CARTESIAN_POINT('',(10.5584927368682,3.32907997232206,0.));
#487=CARTESIAN_POINT('',(19.7867816643671,-1.82145964977565E-14,0.));
#488=CARTESIAN_POINT('',(19.9070639841688,-0.381486780299307,0.));
#489=CARTESIAN_POINT('',(19.9070639841688,-0.381486780299307,-3.64735283367835E-17));
#490=CARTESIAN_POINT('',(19.8234034358971,-0.116149420237827,-3.18));
#491=CARTESIAN_POINT('',(19.7867816643671,-1.82145964977565E-14,-3.18));
#492=CARTESIAN_POINT('',(19.7867816643671,-1.82145964977565E-14,0.));
#493=CARTESIAN_POINT('',(19.9070639841688,-0.381486780299307,0.));
#494=CARTESIAN_POINT('',(10.5584927368682,-3.32907997232209,0.));
#495=CARTESIAN_POINT('',(10.5584927368682,-3.32907997232209,-2.0762012001221E-17));
#496=CARTESIAN_POINT('',(10.5584927368682,-3.03736454271358,-3.18));
#497=CARTESIAN_POINT('',(19.8234034358971,-0.116149420237827,-3.18));
#498=CARTESIAN_POINT('',(19.9070639841688,-0.381486780299307,0.));
#499=CARTESIAN_POINT('',(10.5584927368682,-3.32907997232209,0.));
#500=CARTESIAN_POINT('',(1.2099214895675,-0.381486780299307,0.));
#501=CARTESIAN_POINT('',(1.2099214895675,-0.381486780299307,-3.76539462949265E-17));
#502=CARTESIAN_POINT('',(1.29358203783921,-0.116149420237817,-3.18));
#503=CARTESIAN_POINT('',(10.6421532851399,-3.06374261226061,-3.18));
#504=CARTESIAN_POINT('',(10.5584927368682,-3.32907997232209,0.));
#505=CARTESIAN_POINT('',(1.33020380936921,-7.80625564189563E-15,0.));
#506=CARTESIAN_POINT('',(1.33020380936921,-7.80625564189563E-15,-3.18));
#507=CARTESIAN_POINT('',(1.33020380936921,-7.80625564189563E-15,0.));
#508=CARTESIAN_POINT('',(19.7867816643671,-1.82145964977565E-14,-3.18));
#509=CARTESIAN_POINT('',(10.5584927368682,-1.82145964977565E-14,0.));
#510=CARTESIAN_POINT('',(12.4584927368682,-1.82145964977565E-14,0.));
#511=CARTESIAN_POINT('',(19.7867816643671,-1.82145964977565E-14,0.));
#512=CARTESIAN_POINT('',(10.5584927368682,-1.82145964977565E-14,-0.5));
#513=CARTESIAN_POINT('',(12.4584927368682,-1.82145964977565E-14,-0.5));
#514=CARTESIAN_POINT('',(10.5584927368682,-1.82145964977565E-14,-0.5));
#515=CARTESIAN_POINT('',(10.5584927368682,-1.82145964977565E-14,-1.61803398874989));
#516=CARTESIAN_POINT('',(20.5201085734774,-6.0000000000002,-0.135));
#517=CARTESIAN_POINT('',(20.5201085734774,-6.0000000000002,-0.135));
#518=CARTESIAN_POINT('',(2.1248587197714,-0.200000000000487,-0.135));
#519=CARTESIAN_POINT('',(2.1248587197714,-0.200000000000498,-12.));
#520=CARTESIAN_POINT('',(2.1248587197714,-0.200000000000498,-12.));
#521=CARTESIAN_POINT('',(20.5201085734774,-6.0000000000002,-12.));
#522=CARTESIAN_POINT('',(20.5201085734774,-6.0000000000002,-12.));
#523=CARTESIAN_POINT('',(20.5201085734774,-6.0000000000002,-12.));
#524=CARTESIAN_POINT('',(20.5201085734774,-6.0000000000002,-12.));
#525=CARTESIAN_POINT('',(2.1248587197714,0.199999999999493,-12.));
#526=CARTESIAN_POINT('',(2.1248587197714,0.199999999999493,-12.));
#527=CARTESIAN_POINT('',(2.1248587197714,0.199999999999473,-0.135));
#528=CARTESIAN_POINT('',(1.4905397592989,-5.3776427755281E-13,-0.135));
#529=CARTESIAN_POINT('',(20.5201085734736,5.9999999999998,-0.135));
#530=CARTESIAN_POINT('',(20.5201085734736,5.9999999999998,-12.));
#531=CARTESIAN_POINT('',(20.5201085734736,5.9999999999998,-12.));
#532=CARTESIAN_POINT('',(1.4905397592989,-5.3776427755281E-13,-12.));
#533=CARTESIAN_POINT('',(1.4905397592989,-5.3776427755281E-13,-12.));
#534=CARTESIAN_POINT('',(2.1248587197714,-5.0000000000002,-0.135));
#535=CARTESIAN_POINT('',(81.8730000000018,-6.0000000000002,-0.135));
#536=CARTESIAN_POINT('',(81.8730000000018,-6.0000000000002,-0.135));
#537=CARTESIAN_POINT('',(81.8730000000018,5.9999999999998,-0.135));
#538=CARTESIAN_POINT('',(81.8730000000018,5.9999999999998,-0.135));
#539=CARTESIAN_POINT('',(20.5201085734736,5.9999999999998,-0.135));
#540=CARTESIAN_POINT('',(81.8730000000018,-25.3444923610068,-0.135));
#541=CARTESIAN_POINT('',(2.1248587197714,-25.3444923610068,-12.));
#542=CARTESIAN_POINT('',(2.1248587197714,-5.0000000000002,-13.));
#543=CARTESIAN_POINT('',(81.8730000000018,5.9999999999998,-12.));
#544=CARTESIAN_POINT('',(81.8730000000018,5.9999999999998,-12.));
#545=CARTESIAN_POINT('',(20.5201085734736,5.9999999999998,-12.));
#546=CARTESIAN_POINT('',(20.5201085734736,5.9999999999998,-12.));
#547=CARTESIAN_POINT('',(81.8730000000018,-6.0000000000002,-12.));
#548=CARTESIAN_POINT('',(81.8730000000018,-6.0000000000002,-12.));
#549=CARTESIAN_POINT('',(81.8730000000018,5.9999999999998,-12.));
#550=CARTESIAN_POINT('',(81.8730000000018,5.9999999999998,-12.));
#551=CARTESIAN_POINT('',(81.8730000000018,-6.0000000000002,-12.));
#552=CARTESIAN_POINT('',(81.8730000000018,-6.0000000000002,-12.));
#553=CARTESIAN_POINT('',(81.8730000000018,-25.3444923610068,-12.));
#554=MECHANICAL_DESIGN_GEOMETRIC_PRESENTATION_REPRESENTATION('',(#24,#25),
#555);
#555=(
GEOMETRIC_REPRESENTATION_CONTEXT(3)
GLOBAL_UNCERTAINTY_ASSIGNED_CONTEXT((#556))
GLOBAL_UNIT_ASSIGNED_CONTEXT((#562,#558,#557))
REPRESENTATION_CONTEXT('SVVBN1212F11_SIM','TOP_LEVEL_ASSEMBLY_PART')
);
#556=UNCERTAINTY_MEASURE_WITH_UNIT(LENGTH_MEASURE(2.E-5),#562,
'DISTANCE_ACCURACY_VALUE','Maximum Tolerance applied to model');
#557=(
NAMED_UNIT(*)
SI_UNIT($,.STERADIAN.)
SOLID_ANGLE_UNIT()
);
#558=(
CONVERSION_BASED_UNIT('DEGREE',#560)
NAMED_UNIT(#559)
PLANE_ANGLE_UNIT()
);
#559=DIMENSIONAL_EXPONENTS(0.,0.,0.,0.,0.,0.,0.);
#560=PLANE_ANGLE_MEASURE_WITH_UNIT(PLANE_ANGLE_MEASURE(0.0174532925),#561);
#561=(
NAMED_UNIT(*)
PLANE_ANGLE_UNIT()
SI_UNIT($,.RADIAN.)
);
#562=(
LENGTH_UNIT()
NAMED_UNIT(*)
SI_UNIT(.MILLI.,.METRE.)
);
ENDSEC;
END-ISO-10303-21;
