ISO-10303-21;
HEADER;
/* Generated by software containing ST-Developer
 * from STEP Tools, Inc. (www.steptools.com) 
 */
/* OPTION: using custom schema-name function */

FILE_DESCRIPTION(
/* description */ (''),
/* implementation_level */ '2;1');

FILE_NAME(
/* name */ 'SVJBL1212F11_SIM.stp',
/* time_stamp */ '2022-11-14T07:32:17+01:00',
/* author */ (''),
/* organization */ (''),
/* preprocessor_version */ 'ST-DEVELOPER v18.102',
/* originating_system */ 'SIEMENS PLM Software NX 2027',
/* authorisation */ '');

FILE_SCHEMA (('AUTOMOTIVE_DESIGN { 1 0 10303 214 3 1 1 1 }'));
ENDSEC;

DATA;
#10=SHAPE_REPRESENTATION_RELATIONSHIP('None',
'relationship between model1-None and model1-None',#22,#11);
#11=ADVANCED_BREP_SHAPE_REPRESENTATION('model1-None',(#40,#41),#588);
#12=SHAPE_DEFINITION_REPRESENTATION(#13,#22);
#13=PRODUCT_DEFINITION_SHAPE('','',#14);
#14=PRODUCT_DEFINITION(' ','',#16,#15);
#15=PRODUCT_DEFINITION_CONTEXT('part definition',#21,'design');
#16=PRODUCT_DEFINITION_FORMATION_WITH_SPECIFIED_SOURCE(' ',' ',#18,
 .NOT_KNOWN.);
#17=PRODUCT_RELATED_PRODUCT_CATEGORY('part','',(#18));
#18=PRODUCT('model1','model1',' ',(#19));
#19=PRODUCT_CONTEXT(' ',#21,'mechanical');
#20=APPLICATION_PROTOCOL_DEFINITION('international standard',
'automotive_design',2010,#21);
#21=APPLICATION_CONTEXT(
'core data for automotive mechanical design processes');
#22=SHAPE_REPRESENTATION('model1-None',(#371),#588);
#23=PRESENTATION_LAYER_ASSIGNMENT('1','Layer 1',(#40,#41));
#24=STYLED_ITEM('',(#26),#40);
#25=STYLED_ITEM('',(#27),#41);
#26=PRESENTATION_STYLE_ASSIGNMENT((#28));
#27=PRESENTATION_STYLE_ASSIGNMENT((#29));
#28=SURFACE_STYLE_USAGE(.BOTH.,#30);
#29=SURFACE_STYLE_USAGE(.BOTH.,#31);
#30=SURFACE_SIDE_STYLE('',(#32));
#31=SURFACE_SIDE_STYLE('',(#33));
#32=SURFACE_STYLE_FILL_AREA(#34);
#33=SURFACE_STYLE_FILL_AREA(#35);
#34=FILL_AREA_STYLE('',(#36));
#35=FILL_AREA_STYLE('',(#37));
#36=FILL_AREA_STYLE_COLOUR('',#38);
#37=FILL_AREA_STYLE_COLOUR('',#39);
#38=COLOUR_RGB('light gray',0.8,0.8,0.8);
#39=COLOUR_RGB('medium gray',0.490196078431373,0.490196078431373,0.490196078431373);
#40=MANIFOLD_SOLID_BREP('',#42);
#41=MANIFOLD_SOLID_BREP('',#43);
#42=CLOSED_SHELL('',(#147,#148,#149,#150,#151,#152,#153,#154,#155,#156,
#157));
#43=CLOSED_SHELL('',(#158,#159,#160,#161,#162,#163,#164,#165,#166));
#44=TOROIDAL_SURFACE('',#390,2.9,1.5);
#45=CONICAL_SURFACE('',#379,0.4,4.99999999999999);
#46=CONICAL_SURFACE('',#384,0.4,4.99999999999999);
#47=PLANE('',#375);
#48=PLANE('',#376);
#49=PLANE('',#380);
#50=PLANE('',#381);
#51=PLANE('',#385);
#52=PLANE('',#387);
#53=PLANE('',#391);
#54=PLANE('',#392);
#55=PLANE('',#393);
#56=PLANE('',#394);
#57=PLANE('',#395);
#58=PLANE('',#396);
#59=PLANE('',#397);
#60=PLANE('',#398);
#61=PLANE('',#399);
#62=FACE_OUTER_BOUND('',#181,.T.);
#63=FACE_OUTER_BOUND('',#182,.T.);
#64=FACE_OUTER_BOUND('',#183,.T.);
#65=FACE_OUTER_BOUND('',#184,.T.);
#66=FACE_OUTER_BOUND('',#185,.T.);
#67=FACE_OUTER_BOUND('',#186,.T.);
#68=FACE_OUTER_BOUND('',#195,.T.);
#69=FACE_OUTER_BOUND('',#196,.T.);
#70=FACE_OUTER_BOUND('',#197,.T.);
#71=FACE_OUTER_BOUND('',#198,.T.);
#72=FACE_OUTER_BOUND('',#199,.T.);
#73=FACE_OUTER_BOUND('',#200,.T.);
#74=FACE_OUTER_BOUND('',#201,.T.);
#75=FACE_OUTER_BOUND('',#202,.T.);
#76=FACE_OUTER_BOUND('',#203,.T.);
#77=LINE('',#499,#112);
#78=LINE('',#502,#113);
#79=LINE('',#504,#114);
#80=LINE('',#506,#115);
#81=LINE('',#508,#116);
#82=LINE('',#510,#117);
#83=LINE('',#512,#118);
#84=LINE('',#516,#119);
#85=LINE('',#520,#120);
#86=LINE('',#522,#121);
#87=LINE('',#524,#122);
#88=LINE('',#526,#123);
#89=LINE('',#528,#124);
#90=LINE('',#530,#125);
#91=LINE('',#543,#126);
#92=LINE('',#546,#127);
#93=LINE('',#548,#128);
#94=LINE('',#550,#129);
#95=LINE('',#552,#130);
#96=LINE('',#555,#131);
#97=LINE('',#557,#132);
#98=LINE('',#559,#133);
#99=LINE('',#561,#134);
#100=LINE('',#562,#135);
#101=LINE('',#564,#136);
#102=LINE('',#566,#137);
#103=LINE('',#568,#138);
#104=LINE('',#570,#139);
#105=LINE('',#572,#140);
#106=LINE('',#574,#141);
#107=LINE('',#576,#142);
#108=LINE('',#578,#143);
#109=LINE('',#580,#144);
#110=LINE('',#582,#145);
#111=LINE('',#584,#146);
#112=VECTOR('',#408,1.);
#113=VECTOR('',#409,1.);
#114=VECTOR('',#410,1.);
#115=VECTOR('',#411,1.);
#116=VECTOR('',#414,1.);
#117=VECTOR('',#415,1.);
#118=VECTOR('',#416,1.);
#119=VECTOR('',#421,1.);
#120=VECTOR('',#426,1.);
#121=VECTOR('',#427,1.);
#122=VECTOR('',#428,1.);
#123=VECTOR('',#431,1.);
#124=VECTOR('',#432,1.);
#125=VECTOR('',#433,1.);
#126=VECTOR('',#454,1.);
#127=VECTOR('',#455,1.);
#128=VECTOR('',#456,1.);
#129=VECTOR('',#457,1.);
#130=VECTOR('',#460,1.);
#131=VECTOR('',#461,1.);
#132=VECTOR('',#462,1.);
#133=VECTOR('',#463,1.);
#134=VECTOR('',#466,1.);
#135=VECTOR('',#467,1.);
#136=VECTOR('',#468,1.);
#137=VECTOR('',#469,1.);
#138=VECTOR('',#470,1.);
#139=VECTOR('',#473,1.);
#140=VECTOR('',#476,1.);
#141=VECTOR('',#477,1.);
#142=VECTOR('',#478,1.);
#143=VECTOR('',#479,1.);
#144=VECTOR('',#482,1.);
#145=VECTOR('',#485,1.);
#146=VECTOR('',#488,1.);
#147=ADVANCED_FACE('',(#169,#170),#167,.F.);
#148=ADVANCED_FACE('',(#62),#47,.T.);
#149=ADVANCED_FACE('',(#63),#48,.T.);
#150=ADVANCED_FACE('',(#64),#45,.T.);
#151=ADVANCED_FACE('',(#65),#49,.T.);
#152=ADVANCED_FACE('',(#66),#50,.T.);
#153=ADVANCED_FACE('',(#67),#46,.T.);
#154=ADVANCED_FACE('',(#171,#172),#51,.T.);
#155=ADVANCED_FACE('',(#173,#174),#52,.F.);
#156=ADVANCED_FACE('',(#175,#176),#168,.F.);
#157=ADVANCED_FACE('',(#177,#178),#44,.T.);
#158=ADVANCED_FACE('',(#68),#53,.F.);
#159=ADVANCED_FACE('',(#69),#54,.F.);
#160=ADVANCED_FACE('',(#70),#55,.T.);
#161=ADVANCED_FACE('',(#71),#56,.T.);
#162=ADVANCED_FACE('',(#72),#57,.F.);
#163=ADVANCED_FACE('',(#73),#58,.F.);
#164=ADVANCED_FACE('',(#74),#59,.F.);
#165=ADVANCED_FACE('',(#75),#60,.F.);
#166=ADVANCED_FACE('',(#76),#61,.F.);
#167=CYLINDRICAL_SURFACE('',#374,1.4);
#168=CYLINDRICAL_SURFACE('',#389,1.9);
#169=FACE_BOUND('',#179,.T.);
#170=FACE_BOUND('',#180,.T.);
#171=FACE_BOUND('',#187,.T.);
#172=FACE_BOUND('',#188,.T.);
#173=FACE_BOUND('',#189,.T.);
#174=FACE_BOUND('',#190,.T.);
#175=FACE_BOUND('',#191,.T.);
#176=FACE_BOUND('',#192,.T.);
#177=FACE_BOUND('',#193,.T.);
#178=FACE_BOUND('',#194,.T.);
#179=EDGE_LOOP('',(#204));
#180=EDGE_LOOP('',(#205));
#181=EDGE_LOOP('',(#206,#207,#208,#209));
#182=EDGE_LOOP('',(#210,#211,#212,#213));
#183=EDGE_LOOP('',(#214,#215,#216,#217));
#184=EDGE_LOOP('',(#218,#219,#220,#221));
#185=EDGE_LOOP('',(#222,#223,#224,#225));
#186=EDGE_LOOP('',(#226,#227,#228,#229));
#187=EDGE_LOOP('',(#230));
#188=EDGE_LOOP('',(#231,#232,#233,#234,#235,#236));
#189=EDGE_LOOP('',(#237));
#190=EDGE_LOOP('',(#238,#239,#240,#241,#242,#243));
#191=EDGE_LOOP('',(#244));
#192=EDGE_LOOP('',(#245));
#193=EDGE_LOOP('',(#246));
#194=EDGE_LOOP('',(#247));
#195=EDGE_LOOP('',(#248,#249,#250,#251));
#196=EDGE_LOOP('',(#252,#253,#254,#255));
#197=EDGE_LOOP('',(#256,#257,#258,#259,#260,#261,#262));
#198=EDGE_LOOP('',(#263,#264,#265,#266));
#199=EDGE_LOOP('',(#267,#268,#269,#270,#271,#272,#273));
#200=EDGE_LOOP('',(#274,#275,#276,#277));
#201=EDGE_LOOP('',(#278,#279,#280,#281));
#202=EDGE_LOOP('',(#282,#283,#284,#285));
#203=EDGE_LOOP('',(#286,#287,#288,#289));
#204=ORIENTED_EDGE('',*,*,#320,.T.);
#205=ORIENTED_EDGE('',*,*,#321,.F.);
#206=ORIENTED_EDGE('',*,*,#322,.T.);
#207=ORIENTED_EDGE('',*,*,#323,.F.);
#208=ORIENTED_EDGE('',*,*,#324,.F.);
#209=ORIENTED_EDGE('',*,*,#325,.T.);
#210=ORIENTED_EDGE('',*,*,#326,.T.);
#211=ORIENTED_EDGE('',*,*,#327,.F.);
#212=ORIENTED_EDGE('',*,*,#328,.F.);
#213=ORIENTED_EDGE('',*,*,#323,.T.);
#214=ORIENTED_EDGE('',*,*,#329,.T.);
#215=ORIENTED_EDGE('',*,*,#330,.F.);
#216=ORIENTED_EDGE('',*,*,#331,.F.);
#217=ORIENTED_EDGE('',*,*,#327,.T.);
#218=ORIENTED_EDGE('',*,*,#332,.T.);
#219=ORIENTED_EDGE('',*,*,#333,.F.);
#220=ORIENTED_EDGE('',*,*,#334,.F.);
#221=ORIENTED_EDGE('',*,*,#330,.T.);
#222=ORIENTED_EDGE('',*,*,#335,.T.);
#223=ORIENTED_EDGE('',*,*,#336,.F.);
#224=ORIENTED_EDGE('',*,*,#337,.F.);
#225=ORIENTED_EDGE('',*,*,#333,.T.);
#226=ORIENTED_EDGE('',*,*,#338,.T.);
#227=ORIENTED_EDGE('',*,*,#325,.F.);
#228=ORIENTED_EDGE('',*,*,#339,.F.);
#229=ORIENTED_EDGE('',*,*,#336,.T.);
#230=ORIENTED_EDGE('',*,*,#321,.T.);
#231=ORIENTED_EDGE('',*,*,#324,.T.);
#232=ORIENTED_EDGE('',*,*,#328,.T.);
#233=ORIENTED_EDGE('',*,*,#331,.T.);
#234=ORIENTED_EDGE('',*,*,#334,.T.);
#235=ORIENTED_EDGE('',*,*,#337,.T.);
#236=ORIENTED_EDGE('',*,*,#339,.T.);
#237=ORIENTED_EDGE('',*,*,#340,.F.);
#238=ORIENTED_EDGE('',*,*,#322,.F.);
#239=ORIENTED_EDGE('',*,*,#338,.F.);
#240=ORIENTED_EDGE('',*,*,#335,.F.);
#241=ORIENTED_EDGE('',*,*,#332,.F.);
#242=ORIENTED_EDGE('',*,*,#329,.F.);
#243=ORIENTED_EDGE('',*,*,#326,.F.);
#244=ORIENTED_EDGE('',*,*,#341,.T.);
#245=ORIENTED_EDGE('',*,*,#340,.T.);
#246=ORIENTED_EDGE('',*,*,#320,.F.);
#247=ORIENTED_EDGE('',*,*,#341,.F.);
#248=ORIENTED_EDGE('',*,*,#342,.T.);
#249=ORIENTED_EDGE('',*,*,#343,.F.);
#250=ORIENTED_EDGE('',*,*,#344,.F.);
#251=ORIENTED_EDGE('',*,*,#345,.T.);
#252=ORIENTED_EDGE('',*,*,#346,.F.);
#253=ORIENTED_EDGE('',*,*,#347,.T.);
#254=ORIENTED_EDGE('',*,*,#348,.T.);
#255=ORIENTED_EDGE('',*,*,#349,.T.);
#256=ORIENTED_EDGE('',*,*,#350,.F.);
#257=ORIENTED_EDGE('',*,*,#346,.T.);
#258=ORIENTED_EDGE('',*,*,#351,.T.);
#259=ORIENTED_EDGE('',*,*,#352,.T.);
#260=ORIENTED_EDGE('',*,*,#353,.T.);
#261=ORIENTED_EDGE('',*,*,#354,.T.);
#262=ORIENTED_EDGE('',*,*,#343,.T.);
#263=ORIENTED_EDGE('',*,*,#342,.F.);
#264=ORIENTED_EDGE('',*,*,#355,.F.);
#265=ORIENTED_EDGE('',*,*,#347,.F.);
#266=ORIENTED_EDGE('',*,*,#350,.T.);
#267=ORIENTED_EDGE('',*,*,#355,.T.);
#268=ORIENTED_EDGE('',*,*,#345,.F.);
#269=ORIENTED_EDGE('',*,*,#356,.F.);
#270=ORIENTED_EDGE('',*,*,#357,.F.);
#271=ORIENTED_EDGE('',*,*,#358,.F.);
#272=ORIENTED_EDGE('',*,*,#359,.F.);
#273=ORIENTED_EDGE('',*,*,#348,.F.);
#274=ORIENTED_EDGE('',*,*,#351,.F.);
#275=ORIENTED_EDGE('',*,*,#349,.F.);
#276=ORIENTED_EDGE('',*,*,#359,.T.);
#277=ORIENTED_EDGE('',*,*,#360,.T.);
#278=ORIENTED_EDGE('',*,*,#352,.F.);
#279=ORIENTED_EDGE('',*,*,#360,.F.);
#280=ORIENTED_EDGE('',*,*,#358,.T.);
#281=ORIENTED_EDGE('',*,*,#361,.T.);
#282=ORIENTED_EDGE('',*,*,#353,.F.);
#283=ORIENTED_EDGE('',*,*,#361,.F.);
#284=ORIENTED_EDGE('',*,*,#357,.T.);
#285=ORIENTED_EDGE('',*,*,#362,.T.);
#286=ORIENTED_EDGE('',*,*,#354,.F.);
#287=ORIENTED_EDGE('',*,*,#362,.F.);
#288=ORIENTED_EDGE('',*,*,#356,.T.);
#289=ORIENTED_EDGE('',*,*,#344,.T.);
#290=VERTEX_POINT('',#495);
#291=VERTEX_POINT('',#497);
#292=VERTEX_POINT('',#500);
#293=VERTEX_POINT('',#501);
#294=VERTEX_POINT('',#503);
#295=VERTEX_POINT('',#505);
#296=VERTEX_POINT('',#509);
#297=VERTEX_POINT('',#511);
#298=VERTEX_POINT('',#515);
#299=VERTEX_POINT('',#517);
#300=VERTEX_POINT('',#521);
#301=VERTEX_POINT('',#523);
#302=VERTEX_POINT('',#527);
#303=VERTEX_POINT('',#529);
#304=VERTEX_POINT('',#537);
#305=VERTEX_POINT('',#540);
#306=VERTEX_POINT('',#544);
#307=VERTEX_POINT('',#545);
#308=VERTEX_POINT('',#547);
#309=VERTEX_POINT('',#549);
#310=VERTEX_POINT('',#553);
#311=VERTEX_POINT('',#554);
#312=VERTEX_POINT('',#556);
#313=VERTEX_POINT('',#558);
#314=VERTEX_POINT('',#563);
#315=VERTEX_POINT('',#565);
#316=VERTEX_POINT('',#567);
#317=VERTEX_POINT('',#573);
#318=VERTEX_POINT('',#575);
#319=VERTEX_POINT('',#577);
#320=EDGE_CURVE('',#290,#290,#363,.T.);
#321=EDGE_CURVE('',#291,#291,#364,.T.);
#322=EDGE_CURVE('',#292,#293,#77,.T.);
#323=EDGE_CURVE('',#294,#293,#78,.T.);
#324=EDGE_CURVE('',#295,#294,#79,.T.);
#325=EDGE_CURVE('',#295,#292,#80,.T.);
#326=EDGE_CURVE('',#293,#296,#81,.T.);
#327=EDGE_CURVE('',#297,#296,#82,.T.);
#328=EDGE_CURVE('',#294,#297,#83,.T.);
#329=EDGE_CURVE('',#296,#298,#365,.T.);
#330=EDGE_CURVE('',#299,#298,#84,.T.);
#331=EDGE_CURVE('',#297,#299,#366,.T.);
#332=EDGE_CURVE('',#298,#300,#85,.T.);
#333=EDGE_CURVE('',#301,#300,#86,.T.);
#334=EDGE_CURVE('',#299,#301,#87,.T.);
#335=EDGE_CURVE('',#300,#302,#88,.T.);
#336=EDGE_CURVE('',#303,#302,#89,.T.);
#337=EDGE_CURVE('',#301,#303,#90,.T.);
#338=EDGE_CURVE('',#302,#292,#367,.T.);
#339=EDGE_CURVE('',#303,#295,#368,.T.);
#340=EDGE_CURVE('',#304,#304,#369,.T.);
#341=EDGE_CURVE('',#305,#305,#370,.T.);
#342=EDGE_CURVE('',#306,#307,#91,.T.);
#343=EDGE_CURVE('',#308,#307,#92,.T.);
#344=EDGE_CURVE('',#309,#308,#93,.T.);
#345=EDGE_CURVE('',#309,#306,#94,.T.);
#346=EDGE_CURVE('',#310,#311,#95,.T.);
#347=EDGE_CURVE('',#310,#312,#96,.T.);
#348=EDGE_CURVE('',#312,#313,#97,.T.);
#349=EDGE_CURVE('',#313,#311,#98,.T.);
#350=EDGE_CURVE('',#310,#307,#99,.T.);
#351=EDGE_CURVE('',#311,#314,#100,.T.);
#352=EDGE_CURVE('',#314,#315,#101,.T.);
#353=EDGE_CURVE('',#315,#316,#102,.T.);
#354=EDGE_CURVE('',#316,#308,#103,.T.);
#355=EDGE_CURVE('',#312,#306,#104,.T.);
#356=EDGE_CURVE('',#317,#309,#105,.T.);
#357=EDGE_CURVE('',#318,#317,#106,.T.);
#358=EDGE_CURVE('',#319,#318,#107,.T.);
#359=EDGE_CURVE('',#313,#319,#108,.T.);
#360=EDGE_CURVE('',#319,#314,#109,.T.);
#361=EDGE_CURVE('',#318,#315,#110,.T.);
#362=EDGE_CURVE('',#317,#316,#111,.T.);
#363=CIRCLE('',#372,1.4);
#364=CIRCLE('',#373,1.4);
#365=CIRCLE('',#377,0.4);
#366=CIRCLE('',#378,0.121786049987563);
#367=CIRCLE('',#382,0.4);
#368=CIRCLE('',#383,0.121786049987562);
#369=CIRCLE('',#386,1.9);
#370=CIRCLE('',#388,1.9);
#371=AXIS2_PLACEMENT_3D('',#493,#400,#401);
#372=AXIS2_PLACEMENT_3D('',#494,#402,#403);
#373=AXIS2_PLACEMENT_3D('',#496,#404,#405);
#374=AXIS2_PLACEMENT_3D('',#498,#406,#407);
#375=AXIS2_PLACEMENT_3D('',#507,#412,#413);
#376=AXIS2_PLACEMENT_3D('',#513,#417,#418);
#377=AXIS2_PLACEMENT_3D('',#514,#419,#420);
#378=AXIS2_PLACEMENT_3D('',#518,#422,#423);
#379=AXIS2_PLACEMENT_3D('',#519,#424,#425);
#380=AXIS2_PLACEMENT_3D('',#525,#429,#430);
#381=AXIS2_PLACEMENT_3D('',#531,#434,#435);
#382=AXIS2_PLACEMENT_3D('',#532,#436,#437);
#383=AXIS2_PLACEMENT_3D('',#533,#438,#439);
#384=AXIS2_PLACEMENT_3D('',#534,#440,#441);
#385=AXIS2_PLACEMENT_3D('',#535,#442,#443);
#386=AXIS2_PLACEMENT_3D('',#536,#444,#445);
#387=AXIS2_PLACEMENT_3D('',#538,#446,#447);
#388=AXIS2_PLACEMENT_3D('',#539,#448,#449);
#389=AXIS2_PLACEMENT_3D('',#541,#450,#451);
#390=AXIS2_PLACEMENT_3D('',#542,#452,#453);
#391=AXIS2_PLACEMENT_3D('',#551,#458,#459);
#392=AXIS2_PLACEMENT_3D('',#560,#464,#465);
#393=AXIS2_PLACEMENT_3D('',#569,#471,#472);
#394=AXIS2_PLACEMENT_3D('',#571,#474,#475);
#395=AXIS2_PLACEMENT_3D('',#579,#480,#481);
#396=AXIS2_PLACEMENT_3D('',#581,#483,#484);
#397=AXIS2_PLACEMENT_3D('',#583,#486,#487);
#398=AXIS2_PLACEMENT_3D('',#585,#489,#490);
#399=AXIS2_PLACEMENT_3D('',#586,#491,#492);
#400=DIRECTION('',(0.,0.,1.));
#401=DIRECTION('',(1.,0.,0.));
#402=DIRECTION('',(-2.39860052747081E-17,-3.07006867410968E-17,1.));
#403=DIRECTION('',(-0.936672189248371,0.350207381259538,0.));
#404=DIRECTION('',(-2.39860052747081E-17,-3.07006867410968E-17,1.));
#405=DIRECTION('',(-0.936672189248371,0.350207381259538,0.));
#406=DIRECTION('',(-2.39860052747081E-17,-3.07006867410968E-17,1.));
#407=DIRECTION('',(-0.936672189248371,0.350207381259538,0.));
#408=DIRECTION('',(-0.99862953475457,0.0523359562430195,-2.23463834901897E-17));
#409=DIRECTION('',(-0.0319917416520921,-0.08556579985082,0.995818769838144));
#410=DIRECTION('',(-0.99862953475457,0.0523359562430195,-2.23463834901897E-17));
#411=DIRECTION('',(-0.00456137913876932,-0.0870362988312828,0.996194698091746));
#412=DIRECTION('',(-0.0521368021288576,-0.994829447880329,-0.0871557427476581));
#413=DIRECTION('',(0.99862953475457,-0.0523359562430195,2.23463834901897E-17));
#414=DIRECTION('',(-0.788010753606675,0.615661475325718,-2.9274135154686E-32));
#415=DIRECTION('',(-0.0536584331631318,-0.0686796625237317,0.996194698091746));
#416=DIRECTION('',(-0.788010753606675,0.615661475325718,-2.9274135154686E-32));
#417=DIRECTION('',(-0.613318697538822,-0.785012134782251,-0.0871557427476581));
#418=DIRECTION('',(0.788010753606675,-0.615661475325718,2.9274135154686E-32));
#419=DIRECTION('',(2.39860052747081E-17,3.07006867410968E-17,-1.));
#420=DIRECTION('',(-0.936672189248371,0.350207381259538,-1.17154169655149E-17));
#421=DIRECTION('',(0.00456137913876926,0.0870362988312828,0.996194698091746));
#422=DIRECTION('',(2.39860052747081E-17,3.07006867410968E-17,-1.));
#423=DIRECTION('',(0.936672189248371,-0.350207381259538,0.));
#424=DIRECTION('',(-2.39860052747081E-17,-3.07006867410968E-17,1.));
#425=DIRECTION('',(-0.936672189248371,0.350207381259538,-1.77314020383091E-19));
#426=DIRECTION('',(0.99862953475457,-0.0523359562430193,2.23463834901897E-17));
#427=DIRECTION('',(0.0319917416520922,0.08556579985082,0.995818769838144));
#428=DIRECTION('',(0.99862953475457,-0.0523359562430193,2.23463834901897E-17));
#429=DIRECTION('',(0.0521368021288575,0.994829447880329,-0.0871557427476581));
#430=DIRECTION('',(-0.99862953475457,0.0523359562430193,-2.23463834901897E-17));
#431=DIRECTION('',(0.788010753606675,-0.615661475325718,1.54074395550979E-33));
#432=DIRECTION('',(0.0536584331631318,0.0686796625237316,0.996194698091746));
#433=DIRECTION('',(0.788010753606675,-0.615661475325718,1.54074395550979E-33));
#434=DIRECTION('',(0.613318697538822,0.78501213478225,-0.0871557427476581));
#435=DIRECTION('',(-0.788010753606675,0.615661475325718,-1.54074395550979E-33));
#436=DIRECTION('',(2.39860052747081E-17,3.07006867410968E-17,-1.));
#437=DIRECTION('',(-0.93667218924837,0.350207381259538,-1.17154169655149E-17));
#438=DIRECTION('',(2.39860052747081E-17,3.07006867410968E-17,-1.));
#439=DIRECTION('',(0.93667218924838,-0.35020738125954,0.));
#440=DIRECTION('',(-2.39860052747081E-17,-3.07006867410968E-17,1.));
#441=DIRECTION('',(-0.936672189248371,0.350207381259538,-2.63754605319821E-18));
#442=DIRECTION('',(2.39860052747081E-17,3.07006867410968E-17,-1.));
#443=DIRECTION('',(0.936672189248371,-0.350207381259538,1.17093834628434E-17));
#444=DIRECTION('',(-2.39860052747081E-17,-3.07006867410968E-17,1.));
#445=DIRECTION('',(-0.936672189248371,0.350207381259538,-1.17154169655148E-17));
#446=DIRECTION('',(2.39860052747081E-17,3.07006867410968E-17,-1.));
#447=DIRECTION('',(0.936672189248371,-0.350207381259538,1.17154169655148E-17));
#448=DIRECTION('',(2.39860052747081E-17,3.07006867410968E-17,-1.));
#449=DIRECTION('',(-0.936672189248371,0.350207381259538,0.));
#450=DIRECTION('',(-2.39860052747081E-17,-3.07006867410968E-17,1.));
#451=DIRECTION('',(-0.936672189248371,0.350207381259538,0.));
#452=DIRECTION('',(-2.39860052747081E-17,-3.07006867410968E-17,1.));
#453=DIRECTION('',(-0.936672189248371,0.350207381259538,0.));
#454=DIRECTION('',(0.,0.,1.));
#455=DIRECTION('',(-0.998629534754574,0.0523359562429425,0.));
#456=DIRECTION('',(0.,0.,1.));
#457=DIRECTION('',(-0.998629534754574,0.0523359562429425,0.));
#458=DIRECTION('',(-0.0523359562429425,-0.998629534754574,0.));
#459=DIRECTION('',(-0.998629534754574,0.0523359562429425,0.));
#460=DIRECTION('',(0.788010753606673,-0.615661475325721,0.));
#461=DIRECTION('',(0.,0.,-1.));
#462=DIRECTION('',(0.788010753606673,-0.615661475325721,0.));
#463=DIRECTION('',(0.,0.,1.));
#464=DIRECTION('',(0.615661475325721,0.788010753606673,0.));
#465=DIRECTION('',(0.788010753606673,-0.615661475325721,0.));
#466=DIRECTION('',(0.350207381259466,0.936672189248398,0.));
#467=DIRECTION('',(1.,0.,0.));
#468=DIRECTION('',(3.28742801640909E-17,1.,0.));
#469=DIRECTION('',(-1.,5.74470213047614E-17,0.));
#470=DIRECTION('',(-0.707106781186548,0.707106781186548,0.));
#471=DIRECTION('',(0.,0.,1.));
#472=DIRECTION('',(1.,0.,0.));
#473=DIRECTION('',(0.350207381259466,0.936672189248398,0.));
#474=DIRECTION('',(-0.936672189248398,0.350207381259466,0.));
#475=DIRECTION('',(0.350207381259466,0.936672189248398,0.));
#476=DIRECTION('',(-0.707106781186548,0.707106781186548,0.));
#477=DIRECTION('',(-1.,5.74470213047614E-17,0.));
#478=DIRECTION('',(3.28742801640909E-17,1.,0.));
#479=DIRECTION('',(1.,0.,0.));
#480=DIRECTION('',(0.,0.,1.));
#481=DIRECTION('',(1.,0.,0.));
#482=DIRECTION('',(0.,0.,1.));
#483=DIRECTION('',(0.,1.,0.));
#484=DIRECTION('',(0.,0.,-1.));
#485=DIRECTION('',(0.,0.,1.));
#486=DIRECTION('',(-1.,3.28742801640909E-17,0.));
#487=DIRECTION('',(2.77555756156289E-17,1.,0.));
#488=DIRECTION('',(0.,0.,1.));
#489=DIRECTION('',(-5.74470213047614E-17,-1.,0.));
#490=DIRECTION('',(-1.,5.72458747072346E-17,0.));
#491=DIRECTION('',(-0.707106781186548,-0.707106781186548,0.));
#492=DIRECTION('',(-0.707106781186548,0.707106781186548,0.));
#493=CARTESIAN_POINT('',(0.,0.,0.));
#494=CARTESIAN_POINT('',(9.88984650700538,-3.69766209142649,-1.6180339887499));
#495=CARTESIAN_POINT('',(8.57850544205766,-3.20737175766314,-1.6180339887499));
#496=CARTESIAN_POINT('',(9.88984650700538,-3.69766209142649,-3.18));
#497=CARTESIAN_POINT('',(8.57850544205766,-3.20737175766314,-3.18));
#498=CARTESIAN_POINT('',(9.88984650700538,-3.69766209142649,-3.18));
#499=CARTESIAN_POINT('',(18.5127937172451,-7.3289288041341,2.19044820387902E-16));
#500=CARTESIAN_POINT('',(18.5127937172451,-7.3289288041341,2.19044820387902E-16));
#501=CARTESIAN_POINT('',(8.72397812789487,-6.8159187172843,1.85370757147271E-30));
#502=CARTESIAN_POINT('',(8.72397812789487,-6.8159187172843,1.85370757147271E-30));
#503=CARTESIAN_POINT('',(8.82613902457108,-6.54267698719537,-3.18));
#504=CARTESIAN_POINT('',(18.5273543103592,-7.05109613667095,-3.18));
#505=CARTESIAN_POINT('',(18.5273543103592,-7.05109613667095,-3.18));
#506=CARTESIAN_POINT('',(18.5127937172451,-7.3289288041341,2.19044820387902E-16));
#507=CARTESIAN_POINT('',(18.5127937172451,-7.3289288041341,2.19044820387902E-16));
#508=CARTESIAN_POINT('',(8.72397812789487,-6.8159187172843,1.85370757147271E-30));
#509=CARTESIAN_POINT('',(0.999700324138167,-0.78105149406333,1.37222508537591E-30));
#510=CARTESIAN_POINT('',(0.999700324138167,-0.78105149406333,-5.17741761555231E-17));
#511=CARTESIAN_POINT('',(1.17098593505897,-0.561815909650178,-3.18));
#512=CARTESIAN_POINT('',(8.89526373881577,-6.59668313287111,-3.18));
#513=CARTESIAN_POINT('',(8.72397812789487,-6.8159187172843,1.85370757147271E-30));
#514=CARTESIAN_POINT('',(1.24596491426847,-0.465847192620682,1.55838922758783E-17));
#515=CARTESIAN_POINT('',(1.26689929676567,-0.0663953787188309,2.83494694916418E-17));
#516=CARTESIAN_POINT('',(1.26689929676567,-0.0663953787188309,-8.12405884514166E-18));
#517=CARTESIAN_POINT('',(1.25233870365157,-0.34422804618198,-3.18));
#518=CARTESIAN_POINT('',(1.24596491426847,-0.465847192620682,-3.18));
#519=CARTESIAN_POINT('',(1.24596491426847,-0.465847192620682,1.55838922758783E-17));
#520=CARTESIAN_POINT('',(1.26689929676567,-0.0663953787188309,2.83494694916418E-17));
#521=CARTESIAN_POINT('',(11.0557148861159,-0.57940546556863,2.47394289879543E-16));
#522=CARTESIAN_POINT('',(11.0557148861159,-0.57940546556863,2.26632277878321E-16));
#523=CARTESIAN_POINT('',(10.9535539894397,-0.852647195657579,-3.18));
#524=CARTESIAN_POINT('',(1.25233870365157,-0.34422804618198,-3.18));
#525=CARTESIAN_POINT('',(1.26689929676567,-0.0663953787188309,2.83494694916418E-17));
#526=CARTESIAN_POINT('',(11.0557148861159,-0.57940546556863,2.47394289879543E-16));
#527=CARTESIAN_POINT('',(18.7799926898726,-6.6142726887896,2.47394289879543E-16));
#528=CARTESIAN_POINT('',(18.7799926898726,-6.6142726887896,2.09740343584615E-16));
#529=CARTESIAN_POINT('',(18.6087070789518,-6.8335082732028,-3.18));
#530=CARTESIAN_POINT('',(10.884429275195,-0.79864104998183,-3.18));
#531=CARTESIAN_POINT('',(11.0557148861159,-0.57940546556863,2.47394289879543E-16));
#532=CARTESIAN_POINT('',(18.5337280997423,-6.92947699023228,2.31810397603666E-16));
#533=CARTESIAN_POINT('',(18.5337280997423,-6.92947699023228,-3.18));
#534=CARTESIAN_POINT('',(18.5337280997423,-6.92947699023228,2.31810397603666E-16));
#535=CARTESIAN_POINT('',(1.24596491426847,-0.465847192620682,-3.18));
#536=CARTESIAN_POINT('',(9.88984650700538,-3.69766209142649,1.23697144939772E-16));
#537=CARTESIAN_POINT('',(8.11016934743347,-3.03226806703337,1.01437852705294E-16));
#538=CARTESIAN_POINT('',(1.24596491426847,-0.465847192620682,1.55838922758783E-17));
#539=CARTESIAN_POINT('',(9.88984650700538,-3.69766209142649,-0.5));
#540=CARTESIAN_POINT('',(8.11016934743347,-3.03226806703337,-0.5));
#541=CARTESIAN_POINT('',(9.88984650700538,-3.69766209142649,-0.5));
#542=CARTESIAN_POINT('',(9.88984650700538,-3.69766209142649,-1.6180339887499));
#543=CARTESIAN_POINT('',(2.06033754514368,-0.556806769948379,-12.));
#544=CARTESIAN_POINT('',(2.06033754514368,-0.556806769948379,-12.));
#545=CARTESIAN_POINT('',(2.06033754514368,-0.556806769948379,-0.135));
#546=CARTESIAN_POINT('',(18.3570272252509,-1.41088008574763,-0.135));
#547=CARTESIAN_POINT('',(18.3570272252509,-1.41088008574763,-0.135));
#548=CARTESIAN_POINT('',(18.3570272252509,-1.41088008574763,-12.));
#549=CARTESIAN_POINT('',(18.3570272252509,-1.41088008574763,-12.));
#550=CARTESIAN_POINT('',(18.3570272252509,-1.41088008574763,-12.));
#551=CARTESIAN_POINT('',(18.3570272252509,-1.41088008574763,-12.));
#552=CARTESIAN_POINT('',(1.39614713950417,-0.521998025767727,-0.135));
#553=CARTESIAN_POINT('',(1.92025459263988,-0.931475645647729,-0.135));
#554=CARTESIAN_POINT('',(21.6102678636294,-16.3150000000009,-0.135));
#555=CARTESIAN_POINT('',(1.92025459263988,-0.931475645647779,-12.));
#556=CARTESIAN_POINT('',(1.92025459263988,-0.931475645647779,-12.));
#557=CARTESIAN_POINT('',(1.39614713950417,-0.521998025767727,-12.));
#558=CARTESIAN_POINT('',(21.6102678636294,-16.3150000000009,-12.));
#559=CARTESIAN_POINT('',(21.6102678636294,-16.3150000000009,-12.));
#560=CARTESIAN_POINT('',(1.39614713950417,-0.521998025767727,-12.));
#561=CARTESIAN_POINT('',(10.4681423131545,21.9308885793137,-0.135));
#562=CARTESIAN_POINT('',(21.6102678636294,-16.3150000000009,-0.135));
#563=CARTESIAN_POINT('',(81.7900000000015,-16.3150000000009,-0.135));
#564=CARTESIAN_POINT('',(81.7900000000015,-16.3150000000009,-0.135));
#565=CARTESIAN_POINT('',(81.7900000000015,-4.45000000000093,-0.135));
#566=CARTESIAN_POINT('',(81.7900000000015,-4.45000000000093,-0.135));
#567=CARTESIAN_POINT('',(21.3961471395042,-4.45000000000093,-0.135));
#568=CARTESIAN_POINT('',(21.3961471395042,-4.45000000000093,-0.135));
#569=CARTESIAN_POINT('',(81.7900000000015,-4.73526132219383,-0.135));
#570=CARTESIAN_POINT('',(10.4681423131544,21.9308885793137,-12.));
#571=CARTESIAN_POINT('',(2.06033754514368,-0.556806769948379,-13.));
#572=CARTESIAN_POINT('',(21.3961471395042,-4.45000000000093,-12.));
#573=CARTESIAN_POINT('',(21.3961471395042,-4.45000000000093,-12.));
#574=CARTESIAN_POINT('',(81.7900000000015,-4.45000000000093,-12.));
#575=CARTESIAN_POINT('',(81.7900000000015,-4.45000000000093,-12.));
#576=CARTESIAN_POINT('',(81.7900000000015,-16.3150000000009,-12.));
#577=CARTESIAN_POINT('',(81.7900000000015,-16.3150000000009,-12.));
#578=CARTESIAN_POINT('',(21.6102678636294,-16.3150000000009,-12.));
#579=CARTESIAN_POINT('',(81.7900000000015,-4.73526132219383,-12.));
#580=CARTESIAN_POINT('',(81.7900000000015,-16.3150000000009,-12.));
#581=CARTESIAN_POINT('',(21.6102678636294,-16.3150000000009,-12.));
#582=CARTESIAN_POINT('',(81.7900000000015,-4.45000000000093,-12.));
#583=CARTESIAN_POINT('',(81.7900000000015,-16.3150000000009,-12.));
#584=CARTESIAN_POINT('',(21.3961471395042,-4.45000000000093,-12.));
#585=CARTESIAN_POINT('',(81.7900000000015,-4.45000000000093,-12.));
#586=CARTESIAN_POINT('',(21.3961471395042,-4.45000000000093,-12.));
#587=MECHANICAL_DESIGN_GEOMETRIC_PRESENTATION_REPRESENTATION('',(#24,#25),
#588);
#588=(
GEOMETRIC_REPRESENTATION_CONTEXT(3)
GLOBAL_UNCERTAINTY_ASSIGNED_CONTEXT((#589))
GLOBAL_UNIT_ASSIGNED_CONTEXT((#595,#591,#590))
REPRESENTATION_CONTEXT('SVJBL1212F11_SIM','TOP_LEVEL_ASSEMBLY_PART')
);
#589=UNCERTAINTY_MEASURE_WITH_UNIT(LENGTH_MEASURE(2.E-5),#595,
'DISTANCE_ACCURACY_VALUE','Maximum Tolerance applied to model');
#590=(
NAMED_UNIT(*)
SI_UNIT($,.STERADIAN.)
SOLID_ANGLE_UNIT()
);
#591=(
CONVERSION_BASED_UNIT('DEGREE',#593)
NAMED_UNIT(#592)
PLANE_ANGLE_UNIT()
);
#592=DIMENSIONAL_EXPONENTS(0.,0.,0.,0.,0.,0.,0.);
#593=PLANE_ANGLE_MEASURE_WITH_UNIT(PLANE_ANGLE_MEASURE(0.0174532925),#594);
#594=(
NAMED_UNIT(*)
PLANE_ANGLE_UNIT()
SI_UNIT($,.RADIAN.)
);
#595=(
LENGTH_UNIT()
NAMED_UNIT(*)
SI_UNIT(.MILLI.,.METRE.)
);
ENDSEC;
END-ISO-10303-21;
