ISO-10303-21;
HEADER;
/* Generated by software containing ST-Developer
 * from STEP Tools, Inc. (www.steptools.com) 
 */
/* OPTION: using custom schema-name function */

FILE_DESCRIPTION(
/* description */ (''),
/* implementation_level */ '2;1');

FILE_NAME(
/* name */ 'SVHBL1616H11_SIM.stp',
/* time_stamp */ '2023-02-04T11:04:47+01:00',
/* author */ (''),
/* organization */ (''),
/* preprocessor_version */ 'ST-DEVELOPER v18.102',
/* originating_system */ 'SIEMENS PLM Software NX 2027',
/* authorisation */ '');

FILE_SCHEMA (('AUTOMOTIVE_DESIGN { 1 0 10303 214 3 1 1 1 }'));
ENDSEC;

DATA;
#10=SHAPE_REPRESENTATION_RELATIONSHIP('None',
'relationship between model1-None and model1-None',#22,#11);
#11=ADVANCED_BREP_SHAPE_REPRESENTATION('model1-None',(#40,#41),#590);
#12=SHAPE_DEFINITION_REPRESENTATION(#13,#22);
#13=PRODUCT_DEFINITION_SHAPE('','',#14);
#14=PRODUCT_DEFINITION(' ','',#16,#15);
#15=PRODUCT_DEFINITION_CONTEXT('part definition',#21,'design');
#16=PRODUCT_DEFINITION_FORMATION_WITH_SPECIFIED_SOURCE(' ',' ',#18,
 .NOT_KNOWN.);
#17=PRODUCT_RELATED_PRODUCT_CATEGORY('part','',(#18));
#18=PRODUCT('model1','model1',' ',(#19));
#19=PRODUCT_CONTEXT(' ',#21,'mechanical');
#20=APPLICATION_PROTOCOL_DEFINITION('international standard',
'automotive_design',2010,#21);
#21=APPLICATION_CONTEXT(
'core data for automotive mechanical design processes');
#22=SHAPE_REPRESENTATION('model1-None',(#369),#590);
#23=PRESENTATION_LAYER_ASSIGNMENT('1','Layer 1',(#40,#41));
#24=STYLED_ITEM('',(#26),#40);
#25=STYLED_ITEM('',(#27),#41);
#26=PRESENTATION_STYLE_ASSIGNMENT((#28));
#27=PRESENTATION_STYLE_ASSIGNMENT((#29));
#28=SURFACE_STYLE_USAGE(.BOTH.,#30);
#29=SURFACE_STYLE_USAGE(.BOTH.,#31);
#30=SURFACE_SIDE_STYLE('',(#32));
#31=SURFACE_SIDE_STYLE('',(#33));
#32=SURFACE_STYLE_FILL_AREA(#34);
#33=SURFACE_STYLE_FILL_AREA(#35);
#34=FILL_AREA_STYLE('',(#36));
#35=FILL_AREA_STYLE('',(#37));
#36=FILL_AREA_STYLE_COLOUR('',#38);
#37=FILL_AREA_STYLE_COLOUR('',#39);
#38=COLOUR_RGB('light gray',0.8,0.8,0.8);
#39=COLOUR_RGB('medium gray',0.490196078431373,0.490196078431373,0.490196078431373);
#40=MANIFOLD_SOLID_BREP('',#42);
#41=MANIFOLD_SOLID_BREP('',#43);
#42=CLOSED_SHELL('',(#142,#143,#144,#145,#146,#147,#148,#149,#150,#151,
#152));
#43=CLOSED_SHELL('',(#153,#154,#155,#156,#157,#158,#159,#160,#161));
#44=TOROIDAL_SURFACE('',#388,2.9,1.5);
#45=CONICAL_SURFACE('',#377,0.4,4.99999999999999);
#46=CONICAL_SURFACE('',#382,0.4,4.99999999999999);
#47=PLANE('',#373);
#48=PLANE('',#374);
#49=PLANE('',#378);
#50=PLANE('',#379);
#51=PLANE('',#383);
#52=PLANE('',#385);
#53=PLANE('',#389);
#54=PLANE('',#390);
#55=PLANE('',#392);
#56=PLANE('',#393);
#57=PLANE('',#394);
#58=PLANE('',#395);
#59=PLANE('',#396);
#60=PLANE('',#399);
#61=FACE_OUTER_BOUND('',#177,.T.);
#62=FACE_OUTER_BOUND('',#178,.T.);
#63=FACE_OUTER_BOUND('',#179,.T.);
#64=FACE_OUTER_BOUND('',#180,.T.);
#65=FACE_OUTER_BOUND('',#181,.T.);
#66=FACE_OUTER_BOUND('',#182,.T.);
#67=FACE_OUTER_BOUND('',#191,.T.);
#68=FACE_OUTER_BOUND('',#192,.T.);
#69=FACE_OUTER_BOUND('',#193,.T.);
#70=FACE_OUTER_BOUND('',#194,.T.);
#71=FACE_OUTER_BOUND('',#195,.T.);
#72=FACE_OUTER_BOUND('',#196,.T.);
#73=FACE_OUTER_BOUND('',#197,.T.);
#74=FACE_OUTER_BOUND('',#198,.T.);
#75=FACE_OUTER_BOUND('',#199,.T.);
#76=LINE('',#501,#109);
#77=LINE('',#504,#110);
#78=LINE('',#506,#111);
#79=LINE('',#508,#112);
#80=LINE('',#510,#113);
#81=LINE('',#512,#114);
#82=LINE('',#514,#115);
#83=LINE('',#520,#116);
#84=LINE('',#522,#117);
#85=LINE('',#524,#118);
#86=LINE('',#526,#119);
#87=LINE('',#528,#120);
#88=LINE('',#530,#121);
#89=LINE('',#532,#122);
#90=LINE('',#545,#123);
#91=LINE('',#548,#124);
#92=LINE('',#550,#125);
#93=LINE('',#552,#126);
#94=LINE('',#554,#127);
#95=LINE('',#557,#128);
#96=LINE('',#559,#129);
#97=LINE('',#561,#130);
#98=LINE('',#563,#131);
#99=LINE('',#564,#132);
#100=LINE('',#566,#133);
#101=LINE('',#568,#134);
#102=LINE('',#572,#135);
#103=LINE('',#574,#136);
#104=LINE('',#576,#137);
#105=LINE('',#578,#138);
#106=LINE('',#580,#139);
#107=LINE('',#582,#140);
#108=LINE('',#584,#141);
#109=VECTOR('',#408,1.);
#110=VECTOR('',#409,1.);
#111=VECTOR('',#410,1.);
#112=VECTOR('',#411,1.);
#113=VECTOR('',#414,1.);
#114=VECTOR('',#415,1.);
#115=VECTOR('',#416,1.);
#116=VECTOR('',#423,1.);
#117=VECTOR('',#426,1.);
#118=VECTOR('',#427,1.);
#119=VECTOR('',#428,1.);
#120=VECTOR('',#431,0.999999999999999);
#121=VECTOR('',#432,0.999999999999999);
#122=VECTOR('',#433,1.);
#123=VECTOR('',#454,1.);
#124=VECTOR('',#455,1.);
#125=VECTOR('',#456,1.);
#126=VECTOR('',#457,1.);
#127=VECTOR('',#460,1.);
#128=VECTOR('',#461,1.);
#129=VECTOR('',#462,1.);
#130=VECTOR('',#463,1.);
#131=VECTOR('',#466,1.);
#132=VECTOR('',#467,1.);
#133=VECTOR('',#468,1.);
#134=VECTOR('',#469,1.);
#135=VECTOR('',#474,1.);
#136=VECTOR('',#477,1.);
#137=VECTOR('',#478,1.);
#138=VECTOR('',#481,1.);
#139=VECTOR('',#482,1.);
#140=VECTOR('',#485,1.);
#141=VECTOR('',#486,1.);
#142=ADVANCED_FACE('',(#165,#166),#162,.F.);
#143=ADVANCED_FACE('',(#61),#47,.T.);
#144=ADVANCED_FACE('',(#62),#48,.T.);
#145=ADVANCED_FACE('',(#63),#45,.T.);
#146=ADVANCED_FACE('',(#64),#49,.T.);
#147=ADVANCED_FACE('',(#65),#50,.T.);
#148=ADVANCED_FACE('',(#66),#46,.T.);
#149=ADVANCED_FACE('',(#167,#168),#51,.T.);
#150=ADVANCED_FACE('',(#169,#170),#52,.F.);
#151=ADVANCED_FACE('',(#171,#172),#163,.F.);
#152=ADVANCED_FACE('',(#173,#174),#44,.T.);
#153=ADVANCED_FACE('',(#67),#53,.F.);
#154=ADVANCED_FACE('',(#68),#54,.F.);
#155=ADVANCED_FACE('',(#69),#55,.T.);
#156=ADVANCED_FACE('',(#70),#56,.F.);
#157=ADVANCED_FACE('',(#71),#57,.F.);
#158=ADVANCED_FACE('',(#72),#58,.F.);
#159=ADVANCED_FACE('',(#73),#59,.F.);
#160=ADVANCED_FACE('',(#74),#164,.F.);
#161=ADVANCED_FACE('',(#75),#60,.F.);
#162=CYLINDRICAL_SURFACE('',#372,1.4);
#163=CYLINDRICAL_SURFACE('',#387,1.9);
#164=CYLINDRICAL_SURFACE('',#398,3.);
#165=FACE_BOUND('',#175,.T.);
#166=FACE_BOUND('',#176,.T.);
#167=FACE_BOUND('',#183,.T.);
#168=FACE_BOUND('',#184,.T.);
#169=FACE_BOUND('',#185,.T.);
#170=FACE_BOUND('',#186,.T.);
#171=FACE_BOUND('',#187,.T.);
#172=FACE_BOUND('',#188,.T.);
#173=FACE_BOUND('',#189,.T.);
#174=FACE_BOUND('',#190,.T.);
#175=EDGE_LOOP('',(#200));
#176=EDGE_LOOP('',(#201));
#177=EDGE_LOOP('',(#202,#203,#204,#205));
#178=EDGE_LOOP('',(#206,#207,#208,#209));
#179=EDGE_LOOP('',(#210,#211,#212,#213));
#180=EDGE_LOOP('',(#214,#215,#216,#217));
#181=EDGE_LOOP('',(#218,#219,#220,#221));
#182=EDGE_LOOP('',(#222,#223,#224,#225));
#183=EDGE_LOOP('',(#226));
#184=EDGE_LOOP('',(#227,#228,#229,#230,#231,#232));
#185=EDGE_LOOP('',(#233));
#186=EDGE_LOOP('',(#234,#235,#236,#237,#238,#239));
#187=EDGE_LOOP('',(#240));
#188=EDGE_LOOP('',(#241));
#189=EDGE_LOOP('',(#242));
#190=EDGE_LOOP('',(#243));
#191=EDGE_LOOP('',(#244,#245,#246,#247));
#192=EDGE_LOOP('',(#248,#249,#250,#251));
#193=EDGE_LOOP('',(#252,#253,#254,#255,#256,#257,#258));
#194=EDGE_LOOP('',(#259,#260,#261,#262));
#195=EDGE_LOOP('',(#263,#264,#265,#266));
#196=EDGE_LOOP('',(#267,#268,#269,#270));
#197=EDGE_LOOP('',(#271,#272,#273,#274));
#198=EDGE_LOOP('',(#275,#276,#277,#278));
#199=EDGE_LOOP('',(#279,#280,#281,#282,#283,#284,#285));
#200=ORIENTED_EDGE('',*,*,#316,.F.);
#201=ORIENTED_EDGE('',*,*,#317,.T.);
#202=ORIENTED_EDGE('',*,*,#318,.F.);
#203=ORIENTED_EDGE('',*,*,#319,.F.);
#204=ORIENTED_EDGE('',*,*,#320,.T.);
#205=ORIENTED_EDGE('',*,*,#321,.T.);
#206=ORIENTED_EDGE('',*,*,#322,.F.);
#207=ORIENTED_EDGE('',*,*,#321,.F.);
#208=ORIENTED_EDGE('',*,*,#323,.T.);
#209=ORIENTED_EDGE('',*,*,#324,.T.);
#210=ORIENTED_EDGE('',*,*,#325,.F.);
#211=ORIENTED_EDGE('',*,*,#324,.F.);
#212=ORIENTED_EDGE('',*,*,#326,.T.);
#213=ORIENTED_EDGE('',*,*,#327,.T.);
#214=ORIENTED_EDGE('',*,*,#328,.F.);
#215=ORIENTED_EDGE('',*,*,#327,.F.);
#216=ORIENTED_EDGE('',*,*,#329,.T.);
#217=ORIENTED_EDGE('',*,*,#330,.T.);
#218=ORIENTED_EDGE('',*,*,#331,.F.);
#219=ORIENTED_EDGE('',*,*,#330,.F.);
#220=ORIENTED_EDGE('',*,*,#332,.T.);
#221=ORIENTED_EDGE('',*,*,#333,.T.);
#222=ORIENTED_EDGE('',*,*,#334,.F.);
#223=ORIENTED_EDGE('',*,*,#333,.F.);
#224=ORIENTED_EDGE('',*,*,#335,.T.);
#225=ORIENTED_EDGE('',*,*,#319,.T.);
#226=ORIENTED_EDGE('',*,*,#317,.F.);
#227=ORIENTED_EDGE('',*,*,#320,.F.);
#228=ORIENTED_EDGE('',*,*,#335,.F.);
#229=ORIENTED_EDGE('',*,*,#332,.F.);
#230=ORIENTED_EDGE('',*,*,#329,.F.);
#231=ORIENTED_EDGE('',*,*,#326,.F.);
#232=ORIENTED_EDGE('',*,*,#323,.F.);
#233=ORIENTED_EDGE('',*,*,#336,.T.);
#234=ORIENTED_EDGE('',*,*,#318,.T.);
#235=ORIENTED_EDGE('',*,*,#322,.T.);
#236=ORIENTED_EDGE('',*,*,#325,.T.);
#237=ORIENTED_EDGE('',*,*,#328,.T.);
#238=ORIENTED_EDGE('',*,*,#331,.T.);
#239=ORIENTED_EDGE('',*,*,#334,.T.);
#240=ORIENTED_EDGE('',*,*,#337,.F.);
#241=ORIENTED_EDGE('',*,*,#336,.F.);
#242=ORIENTED_EDGE('',*,*,#316,.T.);
#243=ORIENTED_EDGE('',*,*,#337,.T.);
#244=ORIENTED_EDGE('',*,*,#338,.F.);
#245=ORIENTED_EDGE('',*,*,#339,.F.);
#246=ORIENTED_EDGE('',*,*,#340,.T.);
#247=ORIENTED_EDGE('',*,*,#341,.F.);
#248=ORIENTED_EDGE('',*,*,#342,.F.);
#249=ORIENTED_EDGE('',*,*,#343,.T.);
#250=ORIENTED_EDGE('',*,*,#344,.T.);
#251=ORIENTED_EDGE('',*,*,#345,.F.);
#252=ORIENTED_EDGE('',*,*,#346,.F.);
#253=ORIENTED_EDGE('',*,*,#345,.T.);
#254=ORIENTED_EDGE('',*,*,#347,.T.);
#255=ORIENTED_EDGE('',*,*,#348,.T.);
#256=ORIENTED_EDGE('',*,*,#349,.T.);
#257=ORIENTED_EDGE('',*,*,#350,.T.);
#258=ORIENTED_EDGE('',*,*,#338,.T.);
#259=ORIENTED_EDGE('',*,*,#341,.T.);
#260=ORIENTED_EDGE('',*,*,#351,.T.);
#261=ORIENTED_EDGE('',*,*,#342,.T.);
#262=ORIENTED_EDGE('',*,*,#346,.T.);
#263=ORIENTED_EDGE('',*,*,#347,.F.);
#264=ORIENTED_EDGE('',*,*,#344,.F.);
#265=ORIENTED_EDGE('',*,*,#352,.T.);
#266=ORIENTED_EDGE('',*,*,#353,.T.);
#267=ORIENTED_EDGE('',*,*,#348,.F.);
#268=ORIENTED_EDGE('',*,*,#353,.F.);
#269=ORIENTED_EDGE('',*,*,#354,.T.);
#270=ORIENTED_EDGE('',*,*,#355,.T.);
#271=ORIENTED_EDGE('',*,*,#349,.F.);
#272=ORIENTED_EDGE('',*,*,#355,.F.);
#273=ORIENTED_EDGE('',*,*,#356,.T.);
#274=ORIENTED_EDGE('',*,*,#357,.T.);
#275=ORIENTED_EDGE('',*,*,#350,.F.);
#276=ORIENTED_EDGE('',*,*,#357,.F.);
#277=ORIENTED_EDGE('',*,*,#358,.T.);
#278=ORIENTED_EDGE('',*,*,#339,.T.);
#279=ORIENTED_EDGE('',*,*,#340,.F.);
#280=ORIENTED_EDGE('',*,*,#358,.F.);
#281=ORIENTED_EDGE('',*,*,#356,.F.);
#282=ORIENTED_EDGE('',*,*,#354,.F.);
#283=ORIENTED_EDGE('',*,*,#352,.F.);
#284=ORIENTED_EDGE('',*,*,#343,.F.);
#285=ORIENTED_EDGE('',*,*,#351,.F.);
#286=VERTEX_POINT('',#497);
#287=VERTEX_POINT('',#499);
#288=VERTEX_POINT('',#502);
#289=VERTEX_POINT('',#503);
#290=VERTEX_POINT('',#505);
#291=VERTEX_POINT('',#507);
#292=VERTEX_POINT('',#511);
#293=VERTEX_POINT('',#513);
#294=VERTEX_POINT('',#517);
#295=VERTEX_POINT('',#519);
#296=VERTEX_POINT('',#523);
#297=VERTEX_POINT('',#525);
#298=VERTEX_POINT('',#529);
#299=VERTEX_POINT('',#531);
#300=VERTEX_POINT('',#539);
#301=VERTEX_POINT('',#542);
#302=VERTEX_POINT('',#546);
#303=VERTEX_POINT('',#547);
#304=VERTEX_POINT('',#549);
#305=VERTEX_POINT('',#551);
#306=VERTEX_POINT('',#555);
#307=VERTEX_POINT('',#556);
#308=VERTEX_POINT('',#558);
#309=VERTEX_POINT('',#560);
#310=VERTEX_POINT('',#565);
#311=VERTEX_POINT('',#567);
#312=VERTEX_POINT('',#569);
#313=VERTEX_POINT('',#575);
#314=VERTEX_POINT('',#579);
#315=VERTEX_POINT('',#583);
#316=EDGE_CURVE('',#286,#286,#359,.T.);
#317=EDGE_CURVE('',#287,#287,#360,.T.);
#318=EDGE_CURVE('',#288,#289,#76,.T.);
#319=EDGE_CURVE('',#290,#288,#77,.T.);
#320=EDGE_CURVE('',#290,#291,#78,.T.);
#321=EDGE_CURVE('',#291,#289,#79,.T.);
#322=EDGE_CURVE('',#289,#292,#80,.T.);
#323=EDGE_CURVE('',#291,#293,#81,.T.);
#324=EDGE_CURVE('',#293,#292,#82,.T.);
#325=EDGE_CURVE('',#292,#294,#361,.T.);
#326=EDGE_CURVE('',#293,#295,#362,.T.);
#327=EDGE_CURVE('',#295,#294,#83,.T.);
#328=EDGE_CURVE('',#294,#296,#84,.T.);
#329=EDGE_CURVE('',#295,#297,#85,.T.);
#330=EDGE_CURVE('',#297,#296,#86,.T.);
#331=EDGE_CURVE('',#296,#298,#87,.T.);
#332=EDGE_CURVE('',#297,#299,#88,.T.);
#333=EDGE_CURVE('',#299,#298,#89,.T.);
#334=EDGE_CURVE('',#298,#288,#363,.T.);
#335=EDGE_CURVE('',#299,#290,#364,.T.);
#336=EDGE_CURVE('',#300,#300,#365,.T.);
#337=EDGE_CURVE('',#301,#301,#366,.T.);
#338=EDGE_CURVE('',#302,#303,#90,.T.);
#339=EDGE_CURVE('',#304,#302,#91,.T.);
#340=EDGE_CURVE('',#304,#305,#92,.T.);
#341=EDGE_CURVE('',#303,#305,#93,.T.);
#342=EDGE_CURVE('',#306,#307,#94,.T.);
#343=EDGE_CURVE('',#306,#308,#95,.T.);
#344=EDGE_CURVE('',#308,#309,#96,.T.);
#345=EDGE_CURVE('',#307,#309,#97,.T.);
#346=EDGE_CURVE('',#307,#303,#98,.T.);
#347=EDGE_CURVE('',#309,#310,#99,.T.);
#348=EDGE_CURVE('',#310,#311,#100,.T.);
#349=EDGE_CURVE('',#311,#312,#101,.T.);
#350=EDGE_CURVE('',#312,#302,#367,.T.);
#351=EDGE_CURVE('',#305,#306,#102,.T.);
#352=EDGE_CURVE('',#308,#313,#103,.T.);
#353=EDGE_CURVE('',#313,#310,#104,.T.);
#354=EDGE_CURVE('',#313,#314,#105,.T.);
#355=EDGE_CURVE('',#314,#311,#106,.T.);
#356=EDGE_CURVE('',#314,#315,#107,.T.);
#357=EDGE_CURVE('',#315,#312,#108,.T.);
#358=EDGE_CURVE('',#315,#304,#368,.T.);
#359=CIRCLE('',#370,1.4);
#360=CIRCLE('',#371,1.4);
#361=CIRCLE('',#375,0.4);
#362=CIRCLE('',#376,0.121786049987563);
#363=CIRCLE('',#380,0.4);
#364=CIRCLE('',#381,0.121786049987562);
#365=CIRCLE('',#384,1.9);
#366=CIRCLE('',#386,1.9);
#367=CIRCLE('',#391,3.);
#368=CIRCLE('',#397,3.);
#369=AXIS2_PLACEMENT_3D('',#495,#400,#401);
#370=AXIS2_PLACEMENT_3D('',#496,#402,#403);
#371=AXIS2_PLACEMENT_3D('',#498,#404,#405);
#372=AXIS2_PLACEMENT_3D('',#500,#406,#407);
#373=AXIS2_PLACEMENT_3D('',#509,#412,#413);
#374=AXIS2_PLACEMENT_3D('',#515,#417,#418);
#375=AXIS2_PLACEMENT_3D('',#516,#419,#420);
#376=AXIS2_PLACEMENT_3D('',#518,#421,#422);
#377=AXIS2_PLACEMENT_3D('',#521,#424,#425);
#378=AXIS2_PLACEMENT_3D('',#527,#429,#430);
#379=AXIS2_PLACEMENT_3D('',#533,#434,#435);
#380=AXIS2_PLACEMENT_3D('',#534,#436,#437);
#381=AXIS2_PLACEMENT_3D('',#535,#438,#439);
#382=AXIS2_PLACEMENT_3D('',#536,#440,#441);
#383=AXIS2_PLACEMENT_3D('',#537,#442,#443);
#384=AXIS2_PLACEMENT_3D('',#538,#444,#445);
#385=AXIS2_PLACEMENT_3D('',#540,#446,#447);
#386=AXIS2_PLACEMENT_3D('',#541,#448,#449);
#387=AXIS2_PLACEMENT_3D('',#543,#450,#451);
#388=AXIS2_PLACEMENT_3D('',#544,#452,#453);
#389=AXIS2_PLACEMENT_3D('',#553,#458,#459);
#390=AXIS2_PLACEMENT_3D('',#562,#464,#465);
#391=AXIS2_PLACEMENT_3D('',#570,#470,#471);
#392=AXIS2_PLACEMENT_3D('',#571,#472,#473);
#393=AXIS2_PLACEMENT_3D('',#573,#475,#476);
#394=AXIS2_PLACEMENT_3D('',#577,#479,#480);
#395=AXIS2_PLACEMENT_3D('',#581,#483,#484);
#396=AXIS2_PLACEMENT_3D('',#585,#487,#488);
#397=AXIS2_PLACEMENT_3D('',#586,#489,#490);
#398=AXIS2_PLACEMENT_3D('',#587,#491,#492);
#399=AXIS2_PLACEMENT_3D('',#588,#493,#494);
#400=DIRECTION('',(0.,0.,1.));
#401=DIRECTION('',(1.,0.,0.));
#402=DIRECTION('',(0.,0.,-1.));
#403=DIRECTION('',(0.819152044288993,-0.573576436351045,0.));
#404=DIRECTION('',(0.,0.,-1.));
#405=DIRECTION('',(0.819152044288993,-0.573576436351045,0.));
#406=DIRECTION('',(0.,0.,1.));
#407=DIRECTION('',(0.819152044288993,-0.573576436351045,0.));
#408=DIRECTION('',(0.608761429008722,-0.793353340291234,0.));
#409=DIRECTION('',(-0.069145299634418,-0.0530570545013809,0.996194698091746));
#410=DIRECTION('',(0.608761429008722,-0.793353340291234,0.));
#411=DIRECTION('',(-0.0523966945056231,-0.0748302348180814,0.995818769838144));
#412=DIRECTION('',(-0.790334391311504,-0.606444907981243,-0.0871557427476581));
#413=DIRECTION('',(-0.608761429008722,0.793353340291234,0.));
#414=DIRECTION('',(0.953716950748227,-0.300705799504272,0.));
#415=DIRECTION('',(0.953716950748227,-0.300705799504272,0.));
#416=DIRECTION('',(-0.0262082373043234,-0.0831219092134933,0.996194698091746));
#417=DIRECTION('',(-0.299561523151595,-0.95008776981561,-0.0871557427476581));
#418=DIRECTION('',(-0.953716950748227,0.300705799504272,0.));
#419=DIRECTION('',(0.,0.,1.));
#420=DIRECTION('',(0.819152044288993,-0.573576436351045,0.));
#421=DIRECTION('',(0.,0.,1.));
#422=DIRECTION('',(-0.819152044289006,0.573576436351042,0.));
#423=DIRECTION('',(0.069145299634418,0.0530570545013809,0.996194698091746));
#424=DIRECTION('',(0.,0.,1.));
#425=DIRECTION('',(0.819152044288993,-0.573576436351045,2.19132919664794E-33));
#426=DIRECTION('',(-0.608761429008722,0.793353340291234,0.));
#427=DIRECTION('',(-0.608761429008722,0.793353340291234,0.));
#428=DIRECTION('',(0.0523966945056231,0.0748302348180814,0.995818769838144));
#429=DIRECTION('',(0.790334391311504,0.606444907981243,-0.0871557427476581));
#430=DIRECTION('',(0.608761429008722,-0.793353340291234,0.));
#431=DIRECTION('',(-0.953716950748227,0.300705799504271,0.));
#432=DIRECTION('',(-0.953716950748227,0.300705799504271,0.));
#433=DIRECTION('',(0.0262082373043233,0.0831219092134934,0.996194698091746));
#434=DIRECTION('',(0.299561523151595,0.95008776981561,-0.0871557427476581));
#435=DIRECTION('',(0.953716950748227,-0.300705799504271,0.));
#436=DIRECTION('',(0.,0.,1.));
#437=DIRECTION('',(0.819152044288993,-0.573576436351045,0.));
#438=DIRECTION('',(0.,0.,1.));
#439=DIRECTION('',(-0.819152044288993,0.573576436351045,0.));
#440=DIRECTION('',(0.,0.,1.));
#441=DIRECTION('',(0.819152044288993,-0.573576436351045,2.19132919664794E-33));
#442=DIRECTION('',(0.,0.,-1.));
#443=DIRECTION('',(-0.819152044288993,0.573576436351045,0.));
#444=DIRECTION('',(0.,0.,-1.));
#445=DIRECTION('',(0.819152044288993,-0.573576436351045,0.));
#446=DIRECTION('',(0.,0.,-1.));
#447=DIRECTION('',(-0.819152044288993,0.573576436351045,0.));
#448=DIRECTION('',(0.,0.,1.));
#449=DIRECTION('',(0.819152044288993,-0.573576436351045,0.));
#450=DIRECTION('',(0.,0.,1.));
#451=DIRECTION('',(0.819152044288993,-0.573576436351045,0.));
#452=DIRECTION('',(0.,0.,1.));
#453=DIRECTION('',(0.819152044288993,-0.573576436351045,0.));
#454=DIRECTION('',(-0.953716950748228,0.30070579950427,0.));
#455=DIRECTION('',(0.,0.,1.));
#456=DIRECTION('',(-0.953716950748228,0.30070579950427,0.));
#457=DIRECTION('',(0.,0.,-1.));
#458=DIRECTION('',(-0.30070579950427,-0.953716950748228,0.));
#459=DIRECTION('',(-0.953716950748228,0.30070579950427,0.));
#460=DIRECTION('',(0.,0.,1.));
#461=DIRECTION('',(0.60876142900866,-0.793353340291282,0.));
#462=DIRECTION('',(0.,0.,1.));
#463=DIRECTION('',(0.60876142900866,-0.793353340291282,0.));
#464=DIRECTION('',(0.793353340291282,0.60876142900866,0.));
#465=DIRECTION('',(0.60876142900866,-0.793353340291282,0.));
#466=DIRECTION('',(0.5735764363511,0.819152044288954,0.));
#467=DIRECTION('',(1.,1.09874535925767E-20,0.));
#468=DIRECTION('',(5.59835121147258E-17,1.,0.));
#469=DIRECTION('',(-1.,8.01600244419792E-17,0.));
#470=DIRECTION('',(0.,0.,-1.));
#471=DIRECTION('',(1.,0.,0.));
#472=DIRECTION('',(0.,0.,1.));
#473=DIRECTION('',(1.,0.,0.));
#474=DIRECTION('',(-0.5735764363511,-0.819152044288955,0.));
#475=DIRECTION('',(0.819152044288955,-0.5735764363511,0.));
#476=DIRECTION('',(-0.5735764363511,-0.819152044288955,0.));
#477=DIRECTION('',(1.,1.09874535925767E-20,0.));
#478=DIRECTION('',(0.,0.,1.));
#479=DIRECTION('',(-1.09874535925767E-20,1.,0.));
#480=DIRECTION('',(1.,0.,0.));
#481=DIRECTION('',(5.59835121147258E-17,1.,0.));
#482=DIRECTION('',(0.,0.,1.));
#483=DIRECTION('',(-1.,5.59835121147258E-17,0.));
#484=DIRECTION('',(5.55111512312578E-17,1.,0.));
#485=DIRECTION('',(-1.,8.01600244419792E-17,0.));
#486=DIRECTION('',(0.,0.,1.));
#487=DIRECTION('',(-8.01600244419792E-17,-1.,0.));
#488=DIRECTION('',(-1.,7.97972798949331E-17,0.));
#489=DIRECTION('',(0.,0.,-1.));
#490=DIRECTION('',(1.,0.,0.));
#491=DIRECTION('',(0.,0.,1.));
#492=DIRECTION('',(1.,0.,0.));
#493=DIRECTION('',(0.,0.,1.));
#494=DIRECTION('',(1.,0.,0.));
#495=CARTESIAN_POINT('',(0.,0.,0.));
#496=CARTESIAN_POINT('',(8.64901091001591,-6.0561026372512,-1.6180339887499));
#497=CARTESIAN_POINT('',(9.7958237720205,-6.85910964814266,-1.6180339887499));
#498=CARTESIAN_POINT('',(8.64901091001591,-6.0561026372512,-3.18));
#499=CARTESIAN_POINT('',(9.7958237720205,-6.85910964814266,-3.18));
#500=CARTESIAN_POINT('',(8.64901091001591,-6.0561026372512,-3.18));
#501=CARTESIAN_POINT('',(0.772297833649307,-1.00647813220205,-1.92592994438724E-31));
#502=CARTESIAN_POINT('',(0.772297833649307,-1.00647813220205,-1.92592994438724E-31));
#503=CARTESIAN_POINT('',(6.73952908316382,-8.78312530218036,-1.92592994438724E-31));
#504=CARTESIAN_POINT('',(0.772297833649307,-1.00647813220205,-1.92592994438724E-31));
#505=CARTESIAN_POINT('',(0.993019800207315,-0.837112210422302,-3.18));
#506=CARTESIAN_POINT('',(0.993019800207315,-0.837112210422302,-3.18));
#507=CARTESIAN_POINT('',(6.90685017970721,-8.5441660116659,-3.18));
#508=CARTESIAN_POINT('',(6.73952908316382,-8.78312530218036,-1.92592994438724E-31));
#509=CARTESIAN_POINT('',(0.772297833649307,-1.00647813220205,-1.92592994438724E-31));
#510=CARTESIAN_POINT('',(6.73952908316382,-8.78312530218036,-1.92592994438724E-31));
#511=CARTESIAN_POINT('',(16.0881003304644,-11.7307184942031,-1.92592994438724E-31));
#512=CARTESIAN_POINT('',(6.82318963143551,-8.51778794211885,-3.18));
#513=CARTESIAN_POINT('',(16.1717608787362,-11.4653811341416,-3.18));
#514=CARTESIAN_POINT('',(16.0881003304644,-11.7307184942031,-5.1774176155524E-17));
#515=CARTESIAN_POINT('',(6.73952908316382,-8.78312530218036,-1.92592994438724E-31));
#516=CARTESIAN_POINT('',(16.2083826502661,-11.3492317139038,-1.92592994438724E-31));
#517=CARTESIAN_POINT('',(16.5257239863826,-11.1057271423003,-1.92592994438724E-31));
#518=CARTESIAN_POINT('',(16.2083826502661,-11.3492317139038,-3.18));
#519=CARTESIAN_POINT('',(16.3050020198246,-11.2750930640801,-3.18));
#520=CARTESIAN_POINT('',(16.5257239863826,-11.1057271423003,-3.64735283367841E-17));
#521=CARTESIAN_POINT('',(16.2083826502661,-11.3492317139038,-1.92592994438724E-31));
#522=CARTESIAN_POINT('',(16.5257239863826,-11.1057271423003,-1.92592994438724E-31));
#523=CARTESIAN_POINT('',(10.558492736868,-3.32907997232201,-1.92592994438724E-31));
#524=CARTESIAN_POINT('',(16.3050020198247,-11.2750930640801,-3.18));
#525=CARTESIAN_POINT('',(10.3911716403246,-3.56803926283646,-3.18));
#526=CARTESIAN_POINT('',(10.558492736868,-3.32907997232201,-2.076201200122E-17));
#527=CARTESIAN_POINT('',(16.5257239863826,-11.1057271423003,-1.92592994438724E-31));
#528=CARTESIAN_POINT('',(10.558492736868,-3.32907997232201,-1.92592994438724E-31));
#529=CARTESIAN_POINT('',(1.20992148956751,-0.381486780299256,-1.92592994438724E-31));
#530=CARTESIAN_POINT('',(10.4748321885963,-3.59441733238351,-3.18));
#531=CARTESIAN_POINT('',(1.12626094129571,-0.646824140360755,-3.18));
#532=CARTESIAN_POINT('',(1.20992148956751,-0.381486780299256,-3.76539462949261E-17));
#533=CARTESIAN_POINT('',(10.558492736868,-3.32907997232201,-1.92592994438724E-31));
#534=CARTESIAN_POINT('',(1.08963916976572,-0.762973560598554,-1.92592994438724E-31));
#535=CARTESIAN_POINT('',(1.08963916976572,-0.762973560598554,-3.18));
#536=CARTESIAN_POINT('',(1.08963916976572,-0.762973560598554,-1.92592994438724E-31));
#537=CARTESIAN_POINT('',(16.2083826502661,-11.3492317139038,-3.18));
#538=CARTESIAN_POINT('',(8.64901091001591,-6.0561026372512,-1.92592994438724E-31));
#539=CARTESIAN_POINT('',(10.205399794165,-7.14589786631818,-1.92592994438724E-31));
#540=CARTESIAN_POINT('',(16.2083826502661,-11.3492317139038,-1.92592994438724E-31));
#541=CARTESIAN_POINT('',(8.64901091001591,-6.0561026372512,-0.500000000000001));
#542=CARTESIAN_POINT('',(10.205399794165,-7.14589786631818,-0.500000000000001));
#543=CARTESIAN_POINT('',(8.64901091001591,-6.0561026372512,-0.500000000000001));
#544=CARTESIAN_POINT('',(8.64901091001591,-6.0561026372512,-1.6180339887499));
#545=CARTESIAN_POINT('',(13.4893023232842,-4.72312606623641,-0.135000000000001));
#546=CARTESIAN_POINT('',(13.4893023232842,-4.72312606623641,-0.135000000000001));
#547=CARTESIAN_POINT('',(1.8552976513964,-1.0549384833778,-0.135000000000001));
#548=CARTESIAN_POINT('',(13.4893023232842,-4.72312606623641,-16.));
#549=CARTESIAN_POINT('',(13.4893023232842,-4.72312606623641,-16.));
#550=CARTESIAN_POINT('',(13.4893023232842,-4.72312606623641,-16.));
#551=CARTESIAN_POINT('',(1.8552976513964,-1.0549384833778,-16.));
#552=CARTESIAN_POINT('',(1.8552976513964,-1.0549384833778,-16.));
#553=CARTESIAN_POINT('',(13.4893023232842,-4.72312606623641,-16.));
#554=CARTESIAN_POINT('',(1.62586707685611,-1.38259930109341,-16.));
#555=CARTESIAN_POINT('',(1.62586707685611,-1.38259930109341,-16.));
#556=CARTESIAN_POINT('',(1.62586707685611,-1.3825993010933,-0.135000000000001));
#557=CARTESIAN_POINT('',(1.22097869092391,-0.854938483377803,-16.));
#558=CARTESIAN_POINT('',(16.3795705418106,-20.6100000000005,-16.));
#559=CARTESIAN_POINT('',(16.3795705418106,-20.6100000000005,-16.));
#560=CARTESIAN_POINT('',(16.3795705418106,-20.6100000000005,-0.135000000000001));
#561=CARTESIAN_POINT('',(1.22097869092391,-0.854938483377803,-0.135000000000001));
#562=CARTESIAN_POINT('',(1.22097869092391,-0.854938483377803,-16.));
#563=CARTESIAN_POINT('',(1.8552976513964,-1.0549384833778,-0.135000000000001));
#564=CARTESIAN_POINT('',(16.3795705418106,-20.6100000000006,-0.135000000000001));
#565=CARTESIAN_POINT('',(101.784000000002,-20.6100000000006,-0.135000000000001));
#566=CARTESIAN_POINT('',(101.784000000002,-20.6100000000006,-0.135000000000001));
#567=CARTESIAN_POINT('',(101.784000000002,-4.74500000000055,-0.135000000000001));
#568=CARTESIAN_POINT('',(101.784000000002,-4.74500000000055,-0.135000000000001));
#569=CARTESIAN_POINT('',(15.2209786909239,-4.74500000000055,-0.135000000000001));
#570=CARTESIAN_POINT('',(14.391419721797,-1.8619752139917,-0.135000000000001));
#571=CARTESIAN_POINT('',(14.391419721797,-1.8619752139917,-0.135000000000001));
#572=CARTESIAN_POINT('',(5.60037232273371,4.29358244359214,-16.));
#573=CARTESIAN_POINT('',(1.8552976513964,-1.0549384833778,-17.));
#574=CARTESIAN_POINT('',(16.3795705418106,-20.6100000000006,-16.));
#575=CARTESIAN_POINT('',(101.784000000002,-20.6100000000006,-16.));
#576=CARTESIAN_POINT('',(101.784000000002,-20.6100000000006,-16.));
#577=CARTESIAN_POINT('',(16.3795705418106,-20.6100000000006,-16.));
#578=CARTESIAN_POINT('',(101.784000000002,-20.6100000000006,-16.));
#579=CARTESIAN_POINT('',(101.784000000002,-4.74500000000055,-16.));
#580=CARTESIAN_POINT('',(101.784000000002,-4.74500000000055,-16.));
#581=CARTESIAN_POINT('',(101.784000000002,-20.6100000000006,-16.));
#582=CARTESIAN_POINT('',(101.784000000002,-4.74500000000055,-16.));
#583=CARTESIAN_POINT('',(15.2209786909239,-4.74500000000055,-16.));
#584=CARTESIAN_POINT('',(15.2209786909239,-4.74500000000055,-16.));
#585=CARTESIAN_POINT('',(101.784000000002,-4.74500000000055,-16.));
#586=CARTESIAN_POINT('',(14.391419721797,-1.8619752139917,-16.));
#587=CARTESIAN_POINT('',(14.391419721797,-1.8619752139917,-16.));
#588=CARTESIAN_POINT('',(14.391419721797,-1.8619752139917,-16.));
#589=MECHANICAL_DESIGN_GEOMETRIC_PRESENTATION_REPRESENTATION('',(#24,#25),
#590);
#590=(
GEOMETRIC_REPRESENTATION_CONTEXT(3)
GLOBAL_UNCERTAINTY_ASSIGNED_CONTEXT((#591))
GLOBAL_UNIT_ASSIGNED_CONTEXT((#597,#593,#592))
REPRESENTATION_CONTEXT('SVHBL1616H11_SIM','TOP_LEVEL_ASSEMBLY_PART')
);
#591=UNCERTAINTY_MEASURE_WITH_UNIT(LENGTH_MEASURE(2.E-5),#597,
'DISTANCE_ACCURACY_VALUE','Maximum Tolerance applied to model');
#592=(
NAMED_UNIT(*)
SI_UNIT($,.STERADIAN.)
SOLID_ANGLE_UNIT()
);
#593=(
CONVERSION_BASED_UNIT('DEGREE',#595)
NAMED_UNIT(#594)
PLANE_ANGLE_UNIT()
);
#594=DIMENSIONAL_EXPONENTS(0.,0.,0.,0.,0.,0.,0.);
#595=PLANE_ANGLE_MEASURE_WITH_UNIT(PLANE_ANGLE_MEASURE(0.0174532925),#596);
#596=(
NAMED_UNIT(*)
PLANE_ANGLE_UNIT()
SI_UNIT($,.RADIAN.)
);
#597=(
LENGTH_UNIT()
NAMED_UNIT(*)
SI_UNIT(.MILLI.,.METRE.)
);
ENDSEC;
END-ISO-10303-21;
