ISO-10303-21;
HEADER;
/* Generated by software containing ST-Developer
 * from STEP Tools, Inc. (www.steptools.com) 
 */
/* OPTION: using custom schema-name function */

FILE_DESCRIPTION(
/* description */ (''),
/* implementation_level */ '2;1');

FILE_NAME(
/* name */ 'STN160308_115004751ndi000_00_SIM.stp',
/* time_stamp */ '2023-10-24T13:13:46+02:00',
/* author */ (''),
/* organization */ (''),
/* preprocessor_version */ 'ST-DEVELOPER v16.7',
/* originating_system */ 'SIEMENS PLM Software NX 12.0',
/* authorisation */ '');

FILE_SCHEMA (('AUTOMOTIVE_DESIGN { 1 0 10303 214 3 1 1 1 }'));
ENDSEC;

DATA;
#10=PROPERTY_DEFINITION_REPRESENTATION(#14,#12);
#11=PROPERTY_DEFINITION_REPRESENTATION(#15,#13);
#12=REPRESENTATION('',(#16),#448);
#13=REPRESENTATION('',(#17),#448);
#14=PROPERTY_DEFINITION('pmi validation property','',#21);
#15=PROPERTY_DEFINITION('pmi validation property','',#21);
#16=VALUE_REPRESENTATION_ITEM('number of annotations',COUNT_MEASURE(0.));
#17=VALUE_REPRESENTATION_ITEM('number of views',COUNT_MEASURE(0.));
#18=SHAPE_REPRESENTATION_RELATIONSHIP('None',
'relationship between fo342024107E0pm6-None and fo342024107E0pm6-None',
#30,#19);
#19=ADVANCED_BREP_SHAPE_REPRESENTATION('fo342024107E0pm6-None',(#40),#448);
#20=SHAPE_DEFINITION_REPRESENTATION(#21,#30);
#21=PRODUCT_DEFINITION_SHAPE('','',#22);
#22=PRODUCT_DEFINITION(' ','',#24,#23);
#23=PRODUCT_DEFINITION_CONTEXT('part definition',#29,'design');
#24=PRODUCT_DEFINITION_FORMATION_WITH_SPECIFIED_SOURCE(' ',' ',#26,
 .NOT_KNOWN.);
#25=PRODUCT_RELATED_PRODUCT_CATEGORY('part','',(#26));
#26=PRODUCT('fo342024107E0pm6','fo342024107E0pm6',' ',(#27));
#27=PRODUCT_CONTEXT(' ',#29,'mechanical');
#28=APPLICATION_PROTOCOL_DEFINITION('international standard',
'automotive_design',2010,#29);
#29=APPLICATION_CONTEXT(
'core data for automotive mechanical design processes');
#30=SHAPE_REPRESENTATION('fo342024107E0pm6-None',(#277),#448);
#31=PRESENTATION_LAYER_ASSIGNMENT('40','Layer 40',(#40));
#32=STYLED_ITEM('',(#33),#40);
#33=PRESENTATION_STYLE_ASSIGNMENT((#34));
#34=SURFACE_STYLE_USAGE(.BOTH.,#35);
#35=SURFACE_SIDE_STYLE('',(#36));
#36=SURFACE_STYLE_FILL_AREA(#37);
#37=FILL_AREA_STYLE('',(#38));
#38=FILL_AREA_STYLE_COLOUR('',#39);
#39=COLOUR_RGB('Dark Gray',0.2,0.2,0.2);
#40=MANIFOLD_SOLID_BREP('',#41);
#41=CLOSED_SHELL('',(#61,#62,#63,#64,#65,#66,#67,#68,#69,#70,#71,#72,#73,
#74,#75));
#42=CONICAL_SURFACE('',#294,0.,45.);
#43=CONICAL_SURFACE('',#296,0.,45.);
#44=CONICAL_SURFACE('',#299,0.,45.);
#45=CYLINDRICAL_SURFACE('',#284,0.8);
#46=CYLINDRICAL_SURFACE('',#287,0.8);
#47=CYLINDRICAL_SURFACE('',#290,0.8);
#48=CYLINDRICAL_SURFACE('',#302,2.7);
#49=FACE_OUTER_BOUND('',#92,.T.);
#50=FACE_OUTER_BOUND('',#93,.T.);
#51=FACE_OUTER_BOUND('',#94,.T.);
#52=FACE_OUTER_BOUND('',#95,.T.);
#53=FACE_OUTER_BOUND('',#96,.T.);
#54=FACE_OUTER_BOUND('',#97,.T.);
#55=FACE_OUTER_BOUND('',#98,.T.);
#56=FACE_OUTER_BOUND('',#99,.T.);
#57=FACE_OUTER_BOUND('',#100,.T.);
#58=FACE_OUTER_BOUND('',#101,.T.);
#59=FACE_OUTER_BOUND('',#102,.T.);
#60=FACE_OUTER_BOUND('',#103,.T.);
#61=ADVANCED_FACE('',(#84,#85),#76,.T.);
#62=ADVANCED_FACE('',(#49),#45,.T.);
#63=ADVANCED_FACE('',(#50),#77,.F.);
#64=ADVANCED_FACE('',(#51),#46,.T.);
#65=ADVANCED_FACE('',(#52),#78,.F.);
#66=ADVANCED_FACE('',(#53),#47,.T.);
#67=ADVANCED_FACE('',(#54),#79,.F.);
#68=ADVANCED_FACE('',(#55),#80,.F.);
#69=ADVANCED_FACE('',(#56),#42,.T.);
#70=ADVANCED_FACE('',(#57),#43,.T.);
#71=ADVANCED_FACE('',(#58),#81,.F.);
#72=ADVANCED_FACE('',(#59),#44,.T.);
#73=ADVANCED_FACE('',(#60),#82,.F.);
#74=ADVANCED_FACE('',(#86,#87),#48,.F.);
#75=ADVANCED_FACE('',(#88,#89),#83,.F.);
#76=PLANE('',#282);
#77=PLANE('',#285);
#78=PLANE('',#288);
#79=PLANE('',#291);
#80=PLANE('',#292);
#81=PLANE('',#297);
#82=PLANE('',#300);
#83=PLANE('',#303);
#84=FACE_BOUND('',#90,.T.);
#85=FACE_BOUND('',#91,.T.);
#86=FACE_BOUND('',#104,.T.);
#87=FACE_BOUND('',#105,.T.);
#88=FACE_BOUND('',#106,.T.);
#89=FACE_BOUND('',#107,.T.);
#90=EDGE_LOOP('',(#150,#151,#152,#153,#154,#155));
#91=EDGE_LOOP('',(#156));
#92=EDGE_LOOP('',(#157,#158,#159,#160));
#93=EDGE_LOOP('',(#161,#162,#163,#164));
#94=EDGE_LOOP('',(#165,#166,#167,#168));
#95=EDGE_LOOP('',(#169,#170,#171,#172));
#96=EDGE_LOOP('',(#173,#174,#175,#176));
#97=EDGE_LOOP('',(#177,#178,#179,#180));
#98=EDGE_LOOP('',(#181,#182,#183,#184));
#99=EDGE_LOOP('',(#185,#186,#187,#188));
#100=EDGE_LOOP('',(#189,#190,#191,#192));
#101=EDGE_LOOP('',(#193,#194,#195,#196));
#102=EDGE_LOOP('',(#197,#198,#199,#200));
#103=EDGE_LOOP('',(#201,#202,#203,#204));
#104=EDGE_LOOP('',(#205));
#105=EDGE_LOOP('',(#206));
#106=EDGE_LOOP('',(#207));
#107=EDGE_LOOP('',(#208,#209,#210,#211,#212,#213));
#108=LINE('',#383,#129);
#109=LINE('',#387,#130);
#110=LINE('',#391,#131);
#111=LINE('',#395,#132);
#112=LINE('',#397,#133);
#113=LINE('',#401,#134);
#114=LINE('',#403,#135);
#115=LINE('',#405,#136);
#116=LINE('',#409,#137);
#117=LINE('',#411,#138);
#118=LINE('',#413,#139);
#119=LINE('',#417,#140);
#120=LINE('',#419,#141);
#121=LINE('',#421,#142);
#122=LINE('',#423,#143);
#123=LINE('',#427,#144);
#124=LINE('',#431,#145);
#125=LINE('',#433,#146);
#126=LINE('',#435,#147);
#127=LINE('',#439,#148);
#128=LINE('',#441,#149);
#129=VECTOR('',#308,1.);
#130=VECTOR('',#311,1.);
#131=VECTOR('',#314,1.);
#132=VECTOR('',#319,1.);
#133=VECTOR('',#320,1.);
#134=VECTOR('',#325,1.);
#135=VECTOR('',#326,1.);
#136=VECTOR('',#329,1.);
#137=VECTOR('',#334,1.);
#138=VECTOR('',#335,1.);
#139=VECTOR('',#338,1.);
#140=VECTOR('',#343,1.);
#141=VECTOR('',#346,1.);
#142=VECTOR('',#347,1.);
#143=VECTOR('',#348,1.);
#144=VECTOR('',#353,1.);
#145=VECTOR('',#358,1.);
#146=VECTOR('',#361,1.);
#147=VECTOR('',#362,1.);
#148=VECTOR('',#367,1.);
#149=VECTOR('',#370,1.);
#150=ORIENTED_EDGE('',*,*,#234,.F.);
#151=ORIENTED_EDGE('',*,*,#235,.T.);
#152=ORIENTED_EDGE('',*,*,#236,.F.);
#153=ORIENTED_EDGE('',*,*,#237,.T.);
#154=ORIENTED_EDGE('',*,*,#238,.F.);
#155=ORIENTED_EDGE('',*,*,#239,.T.);
#156=ORIENTED_EDGE('',*,*,#240,.T.);
#157=ORIENTED_EDGE('',*,*,#241,.T.);
#158=ORIENTED_EDGE('',*,*,#234,.T.);
#159=ORIENTED_EDGE('',*,*,#242,.F.);
#160=ORIENTED_EDGE('',*,*,#243,.F.);
#161=ORIENTED_EDGE('',*,*,#239,.F.);
#162=ORIENTED_EDGE('',*,*,#244,.F.);
#163=ORIENTED_EDGE('',*,*,#245,.T.);
#164=ORIENTED_EDGE('',*,*,#242,.T.);
#165=ORIENTED_EDGE('',*,*,#244,.T.);
#166=ORIENTED_EDGE('',*,*,#238,.T.);
#167=ORIENTED_EDGE('',*,*,#246,.F.);
#168=ORIENTED_EDGE('',*,*,#247,.T.);
#169=ORIENTED_EDGE('',*,*,#235,.F.);
#170=ORIENTED_EDGE('',*,*,#241,.F.);
#171=ORIENTED_EDGE('',*,*,#248,.F.);
#172=ORIENTED_EDGE('',*,*,#249,.T.);
#173=ORIENTED_EDGE('',*,*,#250,.T.);
#174=ORIENTED_EDGE('',*,*,#236,.T.);
#175=ORIENTED_EDGE('',*,*,#249,.F.);
#176=ORIENTED_EDGE('',*,*,#251,.F.);
#177=ORIENTED_EDGE('',*,*,#237,.F.);
#178=ORIENTED_EDGE('',*,*,#250,.F.);
#179=ORIENTED_EDGE('',*,*,#252,.T.);
#180=ORIENTED_EDGE('',*,*,#246,.T.);
#181=ORIENTED_EDGE('',*,*,#253,.F.);
#182=ORIENTED_EDGE('',*,*,#254,.T.);
#183=ORIENTED_EDGE('',*,*,#255,.T.);
#184=ORIENTED_EDGE('',*,*,#245,.F.);
#185=ORIENTED_EDGE('',*,*,#256,.F.);
#186=ORIENTED_EDGE('',*,*,#257,.T.);
#187=ORIENTED_EDGE('',*,*,#243,.T.);
#188=ORIENTED_EDGE('',*,*,#255,.F.);
#189=ORIENTED_EDGE('',*,*,#258,.F.);
#190=ORIENTED_EDGE('',*,*,#253,.T.);
#191=ORIENTED_EDGE('',*,*,#247,.F.);
#192=ORIENTED_EDGE('',*,*,#259,.F.);
#193=ORIENTED_EDGE('',*,*,#257,.F.);
#194=ORIENTED_EDGE('',*,*,#260,.T.);
#195=ORIENTED_EDGE('',*,*,#261,.T.);
#196=ORIENTED_EDGE('',*,*,#248,.T.);
#197=ORIENTED_EDGE('',*,*,#262,.F.);
#198=ORIENTED_EDGE('',*,*,#263,.T.);
#199=ORIENTED_EDGE('',*,*,#251,.T.);
#200=ORIENTED_EDGE('',*,*,#261,.F.);
#201=ORIENTED_EDGE('',*,*,#263,.F.);
#202=ORIENTED_EDGE('',*,*,#264,.T.);
#203=ORIENTED_EDGE('',*,*,#259,.T.);
#204=ORIENTED_EDGE('',*,*,#252,.F.);
#205=ORIENTED_EDGE('',*,*,#265,.F.);
#206=ORIENTED_EDGE('',*,*,#240,.F.);
#207=ORIENTED_EDGE('',*,*,#265,.T.);
#208=ORIENTED_EDGE('',*,*,#254,.F.);
#209=ORIENTED_EDGE('',*,*,#258,.T.);
#210=ORIENTED_EDGE('',*,*,#264,.F.);
#211=ORIENTED_EDGE('',*,*,#262,.T.);
#212=ORIENTED_EDGE('',*,*,#260,.F.);
#213=ORIENTED_EDGE('',*,*,#256,.T.);
#214=VERTEX_POINT('',#381);
#215=VERTEX_POINT('',#382);
#216=VERTEX_POINT('',#384);
#217=VERTEX_POINT('',#386);
#218=VERTEX_POINT('',#388);
#219=VERTEX_POINT('',#390);
#220=VERTEX_POINT('',#393);
#221=VERTEX_POINT('',#396);
#222=VERTEX_POINT('',#398);
#223=VERTEX_POINT('',#402);
#224=VERTEX_POINT('',#406);
#225=VERTEX_POINT('',#410);
#226=VERTEX_POINT('',#414);
#227=VERTEX_POINT('',#420);
#228=VERTEX_POINT('',#422);
#229=VERTEX_POINT('',#426);
#230=VERTEX_POINT('',#430);
#231=VERTEX_POINT('',#434);
#232=VERTEX_POINT('',#438);
#233=VERTEX_POINT('',#444);
#234=EDGE_CURVE('',#214,#215,#266,.T.);
#235=EDGE_CURVE('',#214,#216,#108,.T.);
#236=EDGE_CURVE('',#217,#216,#267,.T.);
#237=EDGE_CURVE('',#217,#218,#109,.T.);
#238=EDGE_CURVE('',#219,#218,#268,.T.);
#239=EDGE_CURVE('',#219,#215,#110,.T.);
#240=EDGE_CURVE('',#220,#220,#269,.T.);
#241=EDGE_CURVE('',#221,#214,#111,.T.);
#242=EDGE_CURVE('',#222,#215,#112,.T.);
#243=EDGE_CURVE('',#221,#222,#270,.T.);
#244=EDGE_CURVE('',#223,#219,#113,.T.);
#245=EDGE_CURVE('',#223,#222,#114,.T.);
#246=EDGE_CURVE('',#224,#218,#115,.T.);
#247=EDGE_CURVE('',#224,#223,#271,.T.);
#248=EDGE_CURVE('',#225,#221,#116,.T.);
#249=EDGE_CURVE('',#225,#216,#117,.T.);
#250=EDGE_CURVE('',#226,#217,#118,.T.);
#251=EDGE_CURVE('',#226,#225,#272,.T.);
#252=EDGE_CURVE('',#226,#224,#119,.T.);
#253=EDGE_CURVE('',#227,#223,#120,.T.);
#254=EDGE_CURVE('',#227,#228,#121,.T.);
#255=EDGE_CURVE('',#228,#222,#122,.T.);
#256=EDGE_CURVE('',#229,#228,#273,.T.);
#257=EDGE_CURVE('',#229,#221,#123,.T.);
#258=EDGE_CURVE('',#227,#230,#274,.T.);
#259=EDGE_CURVE('',#230,#224,#124,.T.);
#260=EDGE_CURVE('',#229,#231,#125,.T.);
#261=EDGE_CURVE('',#231,#225,#126,.T.);
#262=EDGE_CURVE('',#232,#231,#275,.T.);
#263=EDGE_CURVE('',#232,#226,#127,.T.);
#264=EDGE_CURVE('',#232,#230,#128,.T.);
#265=EDGE_CURVE('',#233,#233,#276,.T.);
#266=CIRCLE('',#278,0.8);
#267=CIRCLE('',#279,0.8);
#268=CIRCLE('',#280,0.8);
#269=CIRCLE('',#281,2.7);
#270=CIRCLE('',#283,0.799999999999999);
#271=CIRCLE('',#286,0.799999999999999);
#272=CIRCLE('',#289,0.799999999999999);
#273=CIRCLE('',#293,0.1);
#274=CIRCLE('',#295,0.1);
#275=CIRCLE('',#298,0.1);
#276=CIRCLE('',#301,2.7);
#277=AXIS2_PLACEMENT_3D('',#379,#304,#305);
#278=AXIS2_PLACEMENT_3D('',#380,#306,#307);
#279=AXIS2_PLACEMENT_3D('',#385,#309,#310);
#280=AXIS2_PLACEMENT_3D('',#389,#312,#313);
#281=AXIS2_PLACEMENT_3D('',#392,#315,#316);
#282=AXIS2_PLACEMENT_3D('',#394,#317,#318);
#283=AXIS2_PLACEMENT_3D('',#399,#321,#322);
#284=AXIS2_PLACEMENT_3D('',#400,#323,#324);
#285=AXIS2_PLACEMENT_3D('',#404,#327,#328);
#286=AXIS2_PLACEMENT_3D('',#407,#330,#331);
#287=AXIS2_PLACEMENT_3D('',#408,#332,#333);
#288=AXIS2_PLACEMENT_3D('',#412,#336,#337);
#289=AXIS2_PLACEMENT_3D('',#415,#339,#340);
#290=AXIS2_PLACEMENT_3D('',#416,#341,#342);
#291=AXIS2_PLACEMENT_3D('',#418,#344,#345);
#292=AXIS2_PLACEMENT_3D('',#424,#349,#350);
#293=AXIS2_PLACEMENT_3D('',#425,#351,#352);
#294=AXIS2_PLACEMENT_3D('',#428,#354,#355);
#295=AXIS2_PLACEMENT_3D('',#429,#356,#357);
#296=AXIS2_PLACEMENT_3D('',#432,#359,#360);
#297=AXIS2_PLACEMENT_3D('',#436,#363,#364);
#298=AXIS2_PLACEMENT_3D('',#437,#365,#366);
#299=AXIS2_PLACEMENT_3D('',#440,#368,#369);
#300=AXIS2_PLACEMENT_3D('',#442,#371,#372);
#301=AXIS2_PLACEMENT_3D('',#443,#373,#374);
#302=AXIS2_PLACEMENT_3D('',#445,#375,#376);
#303=AXIS2_PLACEMENT_3D('',#446,#377,#378);
#304=DIRECTION('',(0.,0.,1.));
#305=DIRECTION('',(1.,0.,0.));
#306=DIRECTION('',(0.,0.,-1.));
#307=DIRECTION('',(1.,0.,0.));
#308=DIRECTION('',(-0.5,-0.866025403784438,0.));
#309=DIRECTION('',(0.,0.,-1.));
#310=DIRECTION('',(1.,0.,0.));
#311=DIRECTION('',(1.,1.55431223447522E-15,0.));
#312=DIRECTION('',(0.,0.,-1.));
#313=DIRECTION('',(1.,0.,0.));
#314=DIRECTION('',(-0.5,0.866025403784438,0.));
#315=DIRECTION('',(0.,0.,-1.));
#316=DIRECTION('',(1.,0.,0.));
#317=DIRECTION('',(0.,0.,1.));
#318=DIRECTION('',(1.,0.,0.));
#319=DIRECTION('',(0.,0.,1.));
#320=DIRECTION('',(0.,0.,1.));
#321=DIRECTION('',(0.,0.,-1.));
#322=DIRECTION('',(-1.,0.,0.));
#323=DIRECTION('',(0.,0.,1.));
#324=DIRECTION('',(1.,0.,0.));
#325=DIRECTION('',(0.,0.,1.));
#326=DIRECTION('',(-0.5,0.866025403784438,-2.77555756156289E-17));
#327=DIRECTION('',(-0.866025403784438,-0.5,0.));
#328=DIRECTION('',(0.5,-0.866025403784438,0.));
#329=DIRECTION('',(0.,0.,1.));
#330=DIRECTION('',(0.,0.,1.));
#331=DIRECTION('',(-0.499999999999999,-0.866025403784439,0.));
#332=DIRECTION('',(0.,0.,1.));
#333=DIRECTION('',(0.499999999999999,0.866025403784439,0.));
#334=DIRECTION('',(0.5,0.866025403784438,-2.77555756156289E-17));
#335=DIRECTION('',(0.,0.,1.));
#336=DIRECTION('',(0.866025403784438,-0.5,0.));
#337=DIRECTION('',(-0.5,-0.866025403784438,0.));
#338=DIRECTION('',(0.,0.,1.));
#339=DIRECTION('',(0.,0.,-1.));
#340=DIRECTION('',(0.499999999999999,-0.866025403784439,0.));
#341=DIRECTION('',(0.,0.,1.));
#342=DIRECTION('',(-0.499999999999999,0.866025403784439,0.));
#343=DIRECTION('',(1.,1.55431223447522E-15,-2.77555756156289E-17));
#344=DIRECTION('',(-1.55431223447522E-15,1.,0.));
#345=DIRECTION('',(-1.,-1.55431223447522E-15,0.));
#346=DIRECTION('',(0.612372435695794,0.353553390593273,0.707106781186548));
#347=DIRECTION('',(-0.5,0.866025403784438,0.));
#348=DIRECTION('',(0.612372435695793,0.353553390593274,0.707106781186548));
#349=DIRECTION('',(-0.612372435695795,-0.353553390593274,0.707106781186547));
#350=DIRECTION('',(0.755928946018454,0.,0.654653670707978));
#351=DIRECTION('',(0.,0.,-1.));
#352=DIRECTION('',(1.,0.,0.));
#353=DIRECTION('',(-0.612372435695793,0.353553390593274,0.707106781186548));
#354=DIRECTION('',(0.,0.,1.));
#355=DIRECTION('',(1.,0.,4.72712147203681E-17));
#356=DIRECTION('',(0.,0.,-1.));
#357=DIRECTION('',(1.,0.,0.));
#358=DIRECTION('',(1.88737914186277E-15,-0.707106781186547,0.707106781186548));
#359=DIRECTION('',(0.,0.,1.));
#360=DIRECTION('',(0.499999999999999,0.866025403784439,4.72712147203681E-17));
#361=DIRECTION('',(-0.5,-0.866025403784438,0.));
#362=DIRECTION('',(-0.612372435695794,0.353553390593273,0.707106781186548));
#363=DIRECTION('',(0.612372435695795,-0.353553390593274,0.707106781186547));
#364=DIRECTION('',(-0.755928946018454,0.,0.654653670707978));
#365=DIRECTION('',(0.,0.,-1.));
#366=DIRECTION('',(1.,0.,0.));
#367=DIRECTION('',(2.77555756156289E-16,-0.707106781186547,0.707106781186548));
#368=DIRECTION('',(0.,0.,1.));
#369=DIRECTION('',(-0.499999999999999,0.866025403784439,4.72712147203681E-17));
#370=DIRECTION('',(1.,1.57009245868377E-15,0.));
#371=DIRECTION('',(-1.11022302462516E-15,0.707106781186548,0.707106781186547));
#372=DIRECTION('',(-0.377964473009226,-0.654653670707977,0.654653670707978));
#373=DIRECTION('',(0.,0.,1.));
#374=DIRECTION('',(1.,0.,0.));
#375=DIRECTION('',(0.,0.,-1.));
#376=DIRECTION('',(-1.,0.,0.));
#377=DIRECTION('',(0.,0.,1.));
#378=DIRECTION('',(1.,0.,0.));
#379=CARTESIAN_POINT('',(0.,0.,0.));
#380=CARTESIAN_POINT('',(-1.83186799063149E-16,6.89999999999999,-0.15));
#381=CARTESIAN_POINT('',(-0.692820323027551,7.29999999999999,-0.15));
#382=CARTESIAN_POINT('',(0.692820323027551,7.29999999999999,-0.15));
#383=CARTESIAN_POINT('',(-0.69282032302755,7.29999999999999,-0.15));
#384=CARTESIAN_POINT('',(-6.66839560914018,-3.04999999999999,-0.15));
#385=CARTESIAN_POINT('',(-5.97557528611262,-3.44999999999999,-0.15));
#386=CARTESIAN_POINT('',(-5.97557528611261,-4.25000000000001,-0.15));
#387=CARTESIAN_POINT('',(5.97557528611263,-4.24999999999999,-0.15));
#388=CARTESIAN_POINT('',(5.97557528611263,-4.24999999999999,-0.15));
#389=CARTESIAN_POINT('',(5.97557528611262,-3.44999999999999,-0.15));
#390=CARTESIAN_POINT('',(6.66839560914018,-3.04999999999999,-0.15));
#391=CARTESIAN_POINT('',(0.69282032302755,7.29999999999999,-0.15));
#392=CARTESIAN_POINT('',(0.,0.,-0.15));
#393=CARTESIAN_POINT('',(2.7,0.,-0.15));
#394=CARTESIAN_POINT('',(0.,0.,-0.15));
#395=CARTESIAN_POINT('',(-0.692820323027551,7.29999999999999,-3.5));
#396=CARTESIAN_POINT('',(-0.69282032302755,7.29999999999999,-2.65));
#397=CARTESIAN_POINT('',(0.692820323027551,7.29999999999999,-3.5));
#398=CARTESIAN_POINT('',(0.69282032302755,7.29999999999999,-2.65));
#399=CARTESIAN_POINT('',(0.,6.89999999999999,-2.65));
#400=CARTESIAN_POINT('',(-1.83186799063149E-16,6.89999999999999,-3.5));
#401=CARTESIAN_POINT('',(6.66839560914018,-3.04999999999999,-3.5));
#402=CARTESIAN_POINT('',(6.66839560914018,-3.04999999999999,-2.65));
#403=CARTESIAN_POINT('',(0.69282032302755,7.29999999999999,-2.65));
#404=CARTESIAN_POINT('',(0.69282032302755,7.29999999999999,-3.5));
#405=CARTESIAN_POINT('',(5.97557528611263,-4.24999999999999,-3.5));
#406=CARTESIAN_POINT('',(5.97557528611263,-4.24999999999999,-2.65));
#407=CARTESIAN_POINT('',(5.97557528611262,-3.44999999999999,-2.65));
#408=CARTESIAN_POINT('',(5.97557528611262,-3.44999999999999,-3.5));
#409=CARTESIAN_POINT('',(-0.69282032302755,7.29999999999999,-2.65));
#410=CARTESIAN_POINT('',(-6.66839560914018,-3.04999999999999,-2.65));
#411=CARTESIAN_POINT('',(-6.66839560914018,-3.04999999999999,-3.5));
#412=CARTESIAN_POINT('',(-0.69282032302755,7.29999999999999,-3.5));
#413=CARTESIAN_POINT('',(-5.97557528611261,-4.25000000000001,-3.5));
#414=CARTESIAN_POINT('',(-5.97557528611261,-4.25000000000001,-2.65));
#415=CARTESIAN_POINT('',(-5.97557528611262,-3.44999999999999,-2.65));
#416=CARTESIAN_POINT('',(-5.97557528611262,-3.44999999999999,-3.5));
#417=CARTESIAN_POINT('',(5.97557528611263,-4.24999999999999,-2.65));
#418=CARTESIAN_POINT('',(5.97557528611263,-4.24999999999999,-3.5));
#419=CARTESIAN_POINT('',(6.66839560914018,-3.04999999999999,-2.65));
#420=CARTESIAN_POINT('',(6.06217782649107,-3.39999999999999,-3.35));
#421=CARTESIAN_POINT('',(6.08660254037845,-3.44230484541327,-3.35));
#422=CARTESIAN_POINT('',(0.0866025403784444,6.94999999999999,-3.35));
#423=CARTESIAN_POINT('',(0.69282032302755,7.29999999999999,-2.65));
#424=CARTESIAN_POINT('',(6.69282032302756,-3.09230484541327,-2.65));
#425=CARTESIAN_POINT('',(0.,6.89999999999999,-3.35));
#426=CARTESIAN_POINT('',(-0.0866025403784448,6.94999999999999,-3.35));
#427=CARTESIAN_POINT('',(-0.69282032302755,7.29999999999999,-2.65));
#428=CARTESIAN_POINT('',(0.,6.89999999999999,-3.45));
#429=CARTESIAN_POINT('',(5.97557528611262,-3.44999999999999,-3.35));
#430=CARTESIAN_POINT('',(5.97557528611262,-3.55,-3.35));
#431=CARTESIAN_POINT('',(5.97557528611263,-4.24999999999999,-2.65));
#432=CARTESIAN_POINT('',(5.97557528611262,-3.44999999999999,-3.45));
#433=CARTESIAN_POINT('',(-6.08660254037845,-3.44230484541327,-3.35));
#434=CARTESIAN_POINT('',(-6.06217782649107,-3.39999999999999,-3.35));
#435=CARTESIAN_POINT('',(-6.66839560914018,-3.04999999999999,-2.65));
#436=CARTESIAN_POINT('',(-6.69282032302756,-3.09230484541327,-2.65));
#437=CARTESIAN_POINT('',(-5.97557528611262,-3.44999999999999,-3.35));
#438=CARTESIAN_POINT('',(-5.97557528611261,-3.55000000000001,-3.35));
#439=CARTESIAN_POINT('',(-5.97557528611261,-4.25000000000001,-2.65));
#440=CARTESIAN_POINT('',(-5.97557528611262,-3.44999999999999,-3.45));
#441=CARTESIAN_POINT('',(-6.02442471388737,-3.55000000000001,-3.35));
#442=CARTESIAN_POINT('',(-6.02442471388737,-4.25000000000001,-2.65));
#443=CARTESIAN_POINT('',(0.,0.,-3.35));
#444=CARTESIAN_POINT('',(2.7,0.,-3.35));
#445=CARTESIAN_POINT('',(0.,0.,0.));
#446=CARTESIAN_POINT('',(0.,0.,-3.35));
#447=MECHANICAL_DESIGN_GEOMETRIC_PRESENTATION_REPRESENTATION('',(#32),#448);
#448=(
GEOMETRIC_REPRESENTATION_CONTEXT(3)
GLOBAL_UNCERTAINTY_ASSIGNED_CONTEXT((#449))
GLOBAL_UNIT_ASSIGNED_CONTEXT((#455,#451,#450))
REPRESENTATION_CONTEXT('STN160308_115004751ndi000_00_SIM',
'TOP_LEVEL_ASSEMBLY_PART')
);
#449=UNCERTAINTY_MEASURE_WITH_UNIT(LENGTH_MEASURE(2.E-5),#455,
'DISTANCE_ACCURACY_VALUE','Maximum Tolerance applied to model');
#450=(
NAMED_UNIT(*)
SI_UNIT($,.STERADIAN.)
SOLID_ANGLE_UNIT()
);
#451=(
CONVERSION_BASED_UNIT('DEGREE',#453)
NAMED_UNIT(#452)
PLANE_ANGLE_UNIT()
);
#452=DIMENSIONAL_EXPONENTS(0.,0.,0.,0.,0.,0.,0.);
#453=PLANE_ANGLE_MEASURE_WITH_UNIT(PLANE_ANGLE_MEASURE(0.0174532925),#454);
#454=(
NAMED_UNIT(*)
PLANE_ANGLE_UNIT()
SI_UNIT($,.RADIAN.)
);
#455=(
LENGTH_UNIT()
NAMED_UNIT(*)
SI_UNIT(.MILLI.,.METRE.)
);
ENDSEC;
END-ISO-10303-21;
