ISO-10303-21;
HEADER;
/* Generated by software containing ST-Developer
 * from STEP Tools, Inc. (www.steptools.com) 
 */
/* OPTION: using custom schema-name function */

FILE_DESCRIPTION(
/* description */ (''),
/* implementation_level */ '2;1');

FILE_NAME(
/* name */ 'STJCL1616H11_SIM.stp',
/* time_stamp */ '2022-08-16T13:17:43+02:00',
/* author */ (''),
/* organization */ (''),
/* preprocessor_version */ 'ST-DEVELOPER v16.7',
/* originating_system */ 'SIEMENS PLM Software NX 12.0',
/* authorisation */ '');

FILE_SCHEMA (('AUTOMOTIVE_DESIGN { 1 0 10303 214 3 1 1 1 }'));
ENDSEC;

DATA;
#10=PROPERTY_DEFINITION_REPRESENTATION(#14,#12);
#11=PROPERTY_DEFINITION_REPRESENTATION(#15,#13);
#12=REPRESENTATION('',(#16),#631);
#13=REPRESENTATION('',(#17),#631);
#14=PROPERTY_DEFINITION('pmi validation property','',#21);
#15=PROPERTY_DEFINITION('pmi validation property','',#21);
#16=VALUE_REPRESENTATION_ITEM('number of annotations',COUNT_MEASURE(0.));
#17=VALUE_REPRESENTATION_ITEM('number of views',COUNT_MEASURE(0.));
#18=SHAPE_REPRESENTATION_RELATIONSHIP('None',
'relationship between krab7820431Apc5i-None and krab7820431Apc5i-None',
#30,#19);
#19=ADVANCED_BREP_SHAPE_REPRESENTATION('krab7820431Apc5i-None',(#48,#49),
#631);
#20=SHAPE_DEFINITION_REPRESENTATION(#21,#30);
#21=PRODUCT_DEFINITION_SHAPE('','',#22);
#22=PRODUCT_DEFINITION(' ','',#24,#23);
#23=PRODUCT_DEFINITION_CONTEXT('part definition',#29,'design');
#24=PRODUCT_DEFINITION_FORMATION_WITH_SPECIFIED_SOURCE(' ',' ',#26,
 .NOT_KNOWN.);
#25=PRODUCT_RELATED_PRODUCT_CATEGORY('part','',(#26));
#26=PRODUCT('krab7820431Apc5i','krab7820431Apc5i',' ',(#27));
#27=PRODUCT_CONTEXT(' ',#29,'mechanical');
#28=APPLICATION_PROTOCOL_DEFINITION('international standard',
'automotive_design',2010,#29);
#29=APPLICATION_CONTEXT(
'core data for automotive mechanical design processes');
#30=SHAPE_REPRESENTATION('krab7820431Apc5i-None',(#398),#631);
#31=PRESENTATION_LAYER_ASSIGNMENT('1','Layer 1',(#48,#49));
#32=STYLED_ITEM('',(#34),#48);
#33=STYLED_ITEM('',(#35),#49);
#34=PRESENTATION_STYLE_ASSIGNMENT((#36));
#35=PRESENTATION_STYLE_ASSIGNMENT((#37));
#36=SURFACE_STYLE_USAGE(.BOTH.,#38);
#37=SURFACE_STYLE_USAGE(.BOTH.,#39);
#38=SURFACE_SIDE_STYLE('',(#40));
#39=SURFACE_SIDE_STYLE('',(#41));
#40=SURFACE_STYLE_FILL_AREA(#42);
#41=SURFACE_STYLE_FILL_AREA(#43);
#42=FILL_AREA_STYLE('',(#44));
#43=FILL_AREA_STYLE('',(#45));
#44=FILL_AREA_STYLE_COLOUR('',#46);
#45=FILL_AREA_STYLE_COLOUR('',#47);
#46=COLOUR_RGB('Light Gray',0.8,0.8,0.8);
#47=COLOUR_RGB('Medium Gray',0.490196078431373,0.490196078431373,0.490196078431373);
#48=MANIFOLD_SOLID_BREP('',#50);
#49=MANIFOLD_SOLID_BREP('',#51);
#50=CLOSED_SHELL('',(#78,#79,#80,#81,#82,#83,#84,#85,#86,#87,#88));
#51=CLOSED_SHELL('',(#89,#90,#91,#92,#93,#94,#95,#96,#97,#98));
#52=TOROIDAL_SURFACE('',#419,2.4,1.);
#53=CYLINDRICAL_SURFACE('',#413,1.4);
#54=CYLINDRICAL_SURFACE('',#414,0.4);
#55=CYLINDRICAL_SURFACE('',#415,0.4);
#56=CYLINDRICAL_SURFACE('',#416,0.4);
#57=CYLINDRICAL_SURFACE('',#418,2.);
#58=ELLIPSE('',#403,0.411884293186225,0.4);
#59=ELLIPSE('',#404,0.411884293186225,0.4);
#60=ELLIPSE('',#405,0.411884293186225,0.4);
#61=ELLIPSE('',#408,0.411884293186225,0.4);
#62=ELLIPSE('',#409,0.411884293186225,0.4);
#63=ELLIPSE('',#410,0.411884293186225,0.4);
#64=FACE_BOUND('',#133,.T.);
#65=FACE_BOUND('',#134,.T.);
#66=FACE_BOUND('',#135,.T.);
#67=FACE_BOUND('',#136,.T.);
#68=FACE_BOUND('',#137,.T.);
#69=FACE_BOUND('',#138,.T.);
#70=FACE_BOUND('',#142,.T.);
#71=FACE_BOUND('',#143,.T.);
#72=FACE_BOUND('',#144,.T.);
#73=FACE_BOUND('',#145,.T.);
#74=CIRCLE('',#402,1.4);
#75=CIRCLE('',#407,2.);
#76=CIRCLE('',#412,1.4);
#77=CIRCLE('',#417,2.);
#78=ADVANCED_FACE('',(#114),#99,.F.);
#79=ADVANCED_FACE('',(#115),#100,.F.);
#80=ADVANCED_FACE('',(#116),#101,.F.);
#81=ADVANCED_FACE('',(#64,#65),#102,.F.);
#82=ADVANCED_FACE('',(#66,#67),#103,.T.);
#83=ADVANCED_FACE('',(#68,#69),#53,.F.);
#84=ADVANCED_FACE('',(#117),#54,.T.);
#85=ADVANCED_FACE('',(#118),#55,.T.);
#86=ADVANCED_FACE('',(#119),#56,.T.);
#87=ADVANCED_FACE('',(#70,#71),#57,.F.);
#88=ADVANCED_FACE('',(#72,#73),#52,.T.);
#89=ADVANCED_FACE('',(#120),#104,.F.);
#90=ADVANCED_FACE('',(#121),#105,.F.);
#91=ADVANCED_FACE('',(#122),#106,.F.);
#92=ADVANCED_FACE('',(#123),#107,.F.);
#93=ADVANCED_FACE('',(#124),#108,.F.);
#94=ADVANCED_FACE('',(#125),#109,.F.);
#95=ADVANCED_FACE('',(#126),#110,.F.);
#96=ADVANCED_FACE('',(#127),#111,.T.);
#97=ADVANCED_FACE('',(#128),#112,.F.);
#98=ADVANCED_FACE('',(#129),#113,.F.);
#99=PLANE('',#399);
#100=PLANE('',#400);
#101=PLANE('',#401);
#102=PLANE('',#406);
#103=PLANE('',#411);
#104=PLANE('',#420);
#105=PLANE('',#421);
#106=PLANE('',#422);
#107=PLANE('',#423);
#108=PLANE('',#424);
#109=PLANE('',#425);
#110=PLANE('',#426);
#111=PLANE('',#427);
#112=PLANE('',#428);
#113=PLANE('',#429);
#114=FACE_OUTER_BOUND('',#130,.T.);
#115=FACE_OUTER_BOUND('',#131,.T.);
#116=FACE_OUTER_BOUND('',#132,.T.);
#117=FACE_OUTER_BOUND('',#139,.T.);
#118=FACE_OUTER_BOUND('',#140,.T.);
#119=FACE_OUTER_BOUND('',#141,.T.);
#120=FACE_OUTER_BOUND('',#146,.T.);
#121=FACE_OUTER_BOUND('',#147,.T.);
#122=FACE_OUTER_BOUND('',#148,.T.);
#123=FACE_OUTER_BOUND('',#149,.T.);
#124=FACE_OUTER_BOUND('',#150,.T.);
#125=FACE_OUTER_BOUND('',#151,.T.);
#126=FACE_OUTER_BOUND('',#152,.T.);
#127=FACE_OUTER_BOUND('',#153,.T.);
#128=FACE_OUTER_BOUND('',#154,.T.);
#129=FACE_OUTER_BOUND('',#155,.T.);
#130=EDGE_LOOP('',(#156,#157,#158,#159));
#131=EDGE_LOOP('',(#160,#161,#162,#163));
#132=EDGE_LOOP('',(#164,#165,#166,#167));
#133=EDGE_LOOP('',(#168));
#134=EDGE_LOOP('',(#169,#170,#171,#172,#173,#174));
#135=EDGE_LOOP('',(#175));
#136=EDGE_LOOP('',(#176,#177,#178,#179,#180,#181));
#137=EDGE_LOOP('',(#182));
#138=EDGE_LOOP('',(#183));
#139=EDGE_LOOP('',(#184,#185,#186,#187));
#140=EDGE_LOOP('',(#188,#189,#190,#191));
#141=EDGE_LOOP('',(#192,#193,#194,#195));
#142=EDGE_LOOP('',(#196));
#143=EDGE_LOOP('',(#197));
#144=EDGE_LOOP('',(#198));
#145=EDGE_LOOP('',(#199));
#146=EDGE_LOOP('',(#200,#201,#202,#203));
#147=EDGE_LOOP('',(#204,#205,#206,#207));
#148=EDGE_LOOP('',(#208,#209,#210,#211));
#149=EDGE_LOOP('',(#212,#213,#214,#215));
#150=EDGE_LOOP('',(#216,#217,#218,#219));
#151=EDGE_LOOP('',(#220,#221,#222,#223));
#152=EDGE_LOOP('',(#224,#225,#226,#227));
#153=EDGE_LOOP('',(#228,#229,#230,#231,#232,#233,#234,#235));
#154=EDGE_LOOP('',(#236,#237,#238,#239,#240,#241,#242,#243));
#155=EDGE_LOOP('',(#244,#245,#246,#247));
#156=ORIENTED_EDGE('',*,*,#280,.T.);
#157=ORIENTED_EDGE('',*,*,#281,.F.);
#158=ORIENTED_EDGE('',*,*,#282,.F.);
#159=ORIENTED_EDGE('',*,*,#283,.F.);
#160=ORIENTED_EDGE('',*,*,#284,.F.);
#161=ORIENTED_EDGE('',*,*,#285,.F.);
#162=ORIENTED_EDGE('',*,*,#286,.T.);
#163=ORIENTED_EDGE('',*,*,#287,.F.);
#164=ORIENTED_EDGE('',*,*,#288,.T.);
#165=ORIENTED_EDGE('',*,*,#289,.F.);
#166=ORIENTED_EDGE('',*,*,#290,.F.);
#167=ORIENTED_EDGE('',*,*,#291,.F.);
#168=ORIENTED_EDGE('',*,*,#292,.T.);
#169=ORIENTED_EDGE('',*,*,#286,.F.);
#170=ORIENTED_EDGE('',*,*,#293,.F.);
#171=ORIENTED_EDGE('',*,*,#280,.F.);
#172=ORIENTED_EDGE('',*,*,#294,.F.);
#173=ORIENTED_EDGE('',*,*,#288,.F.);
#174=ORIENTED_EDGE('',*,*,#295,.F.);
#175=ORIENTED_EDGE('',*,*,#296,.F.);
#176=ORIENTED_EDGE('',*,*,#290,.T.);
#177=ORIENTED_EDGE('',*,*,#297,.F.);
#178=ORIENTED_EDGE('',*,*,#282,.T.);
#179=ORIENTED_EDGE('',*,*,#298,.F.);
#180=ORIENTED_EDGE('',*,*,#284,.T.);
#181=ORIENTED_EDGE('',*,*,#299,.F.);
#182=ORIENTED_EDGE('',*,*,#300,.F.);
#183=ORIENTED_EDGE('',*,*,#292,.F.);
#184=ORIENTED_EDGE('',*,*,#293,.T.);
#185=ORIENTED_EDGE('',*,*,#285,.T.);
#186=ORIENTED_EDGE('',*,*,#298,.T.);
#187=ORIENTED_EDGE('',*,*,#281,.T.);
#188=ORIENTED_EDGE('',*,*,#294,.T.);
#189=ORIENTED_EDGE('',*,*,#283,.T.);
#190=ORIENTED_EDGE('',*,*,#297,.T.);
#191=ORIENTED_EDGE('',*,*,#289,.T.);
#192=ORIENTED_EDGE('',*,*,#295,.T.);
#193=ORIENTED_EDGE('',*,*,#291,.T.);
#194=ORIENTED_EDGE('',*,*,#299,.T.);
#195=ORIENTED_EDGE('',*,*,#287,.T.);
#196=ORIENTED_EDGE('',*,*,#301,.F.);
#197=ORIENTED_EDGE('',*,*,#296,.T.);
#198=ORIENTED_EDGE('',*,*,#301,.T.);
#199=ORIENTED_EDGE('',*,*,#300,.T.);
#200=ORIENTED_EDGE('',*,*,#302,.F.);
#201=ORIENTED_EDGE('',*,*,#303,.F.);
#202=ORIENTED_EDGE('',*,*,#304,.F.);
#203=ORIENTED_EDGE('',*,*,#305,.T.);
#204=ORIENTED_EDGE('',*,*,#306,.F.);
#205=ORIENTED_EDGE('',*,*,#307,.F.);
#206=ORIENTED_EDGE('',*,*,#308,.T.);
#207=ORIENTED_EDGE('',*,*,#309,.T.);
#208=ORIENTED_EDGE('',*,*,#304,.T.);
#209=ORIENTED_EDGE('',*,*,#310,.F.);
#210=ORIENTED_EDGE('',*,*,#311,.F.);
#211=ORIENTED_EDGE('',*,*,#312,.T.);
#212=ORIENTED_EDGE('',*,*,#313,.T.);
#213=ORIENTED_EDGE('',*,*,#314,.F.);
#214=ORIENTED_EDGE('',*,*,#309,.F.);
#215=ORIENTED_EDGE('',*,*,#315,.T.);
#216=ORIENTED_EDGE('',*,*,#316,.T.);
#217=ORIENTED_EDGE('',*,*,#317,.F.);
#218=ORIENTED_EDGE('',*,*,#313,.F.);
#219=ORIENTED_EDGE('',*,*,#318,.T.);
#220=ORIENTED_EDGE('',*,*,#319,.T.);
#221=ORIENTED_EDGE('',*,*,#320,.F.);
#222=ORIENTED_EDGE('',*,*,#316,.F.);
#223=ORIENTED_EDGE('',*,*,#321,.T.);
#224=ORIENTED_EDGE('',*,*,#322,.T.);
#225=ORIENTED_EDGE('',*,*,#311,.T.);
#226=ORIENTED_EDGE('',*,*,#323,.F.);
#227=ORIENTED_EDGE('',*,*,#319,.F.);
#228=ORIENTED_EDGE('',*,*,#305,.F.);
#229=ORIENTED_EDGE('',*,*,#312,.F.);
#230=ORIENTED_EDGE('',*,*,#322,.F.);
#231=ORIENTED_EDGE('',*,*,#321,.F.);
#232=ORIENTED_EDGE('',*,*,#318,.F.);
#233=ORIENTED_EDGE('',*,*,#315,.F.);
#234=ORIENTED_EDGE('',*,*,#308,.F.);
#235=ORIENTED_EDGE('',*,*,#324,.F.);
#236=ORIENTED_EDGE('',*,*,#325,.F.);
#237=ORIENTED_EDGE('',*,*,#306,.T.);
#238=ORIENTED_EDGE('',*,*,#314,.T.);
#239=ORIENTED_EDGE('',*,*,#317,.T.);
#240=ORIENTED_EDGE('',*,*,#320,.T.);
#241=ORIENTED_EDGE('',*,*,#323,.T.);
#242=ORIENTED_EDGE('',*,*,#310,.T.);
#243=ORIENTED_EDGE('',*,*,#303,.T.);
#244=ORIENTED_EDGE('',*,*,#324,.T.);
#245=ORIENTED_EDGE('',*,*,#307,.T.);
#246=ORIENTED_EDGE('',*,*,#325,.T.);
#247=ORIENTED_EDGE('',*,*,#302,.T.);
#248=VERTEX_POINT('',#532);
#249=VERTEX_POINT('',#533);
#250=VERTEX_POINT('',#535);
#251=VERTEX_POINT('',#537);
#252=VERTEX_POINT('',#541);
#253=VERTEX_POINT('',#542);
#254=VERTEX_POINT('',#544);
#255=VERTEX_POINT('',#546);
#256=VERTEX_POINT('',#550);
#257=VERTEX_POINT('',#551);
#258=VERTEX_POINT('',#553);
#259=VERTEX_POINT('',#555);
#260=VERTEX_POINT('',#559);
#261=VERTEX_POINT('',#565);
#262=VERTEX_POINT('',#571);
#263=VERTEX_POINT('',#577);
#264=VERTEX_POINT('',#581);
#265=VERTEX_POINT('',#582);
#266=VERTEX_POINT('',#584);
#267=VERTEX_POINT('',#586);
#268=VERTEX_POINT('',#590);
#269=VERTEX_POINT('',#591);
#270=VERTEX_POINT('',#593);
#271=VERTEX_POINT('',#595);
#272=VERTEX_POINT('',#599);
#273=VERTEX_POINT('',#601);
#274=VERTEX_POINT('',#605);
#275=VERTEX_POINT('',#606);
#276=VERTEX_POINT('',#611);
#277=VERTEX_POINT('',#612);
#278=VERTEX_POINT('',#617);
#279=VERTEX_POINT('',#618);
#280=EDGE_CURVE('',#248,#249,#326,.T.);
#281=EDGE_CURVE('',#250,#249,#327,.T.);
#282=EDGE_CURVE('',#251,#250,#328,.T.);
#283=EDGE_CURVE('',#248,#251,#329,.T.);
#284=EDGE_CURVE('',#252,#253,#330,.T.);
#285=EDGE_CURVE('',#254,#252,#331,.T.);
#286=EDGE_CURVE('',#254,#255,#332,.T.);
#287=EDGE_CURVE('',#253,#255,#333,.T.);
#288=EDGE_CURVE('',#256,#257,#334,.T.);
#289=EDGE_CURVE('',#258,#257,#335,.T.);
#290=EDGE_CURVE('',#259,#258,#336,.T.);
#291=EDGE_CURVE('',#256,#259,#337,.T.);
#292=EDGE_CURVE('',#260,#260,#74,.T.);
#293=EDGE_CURVE('',#249,#254,#58,.T.);
#294=EDGE_CURVE('',#257,#248,#59,.T.);
#295=EDGE_CURVE('',#255,#256,#60,.T.);
#296=EDGE_CURVE('',#261,#261,#75,.T.);
#297=EDGE_CURVE('',#251,#258,#61,.T.);
#298=EDGE_CURVE('',#252,#250,#62,.T.);
#299=EDGE_CURVE('',#259,#253,#63,.T.);
#300=EDGE_CURVE('',#262,#262,#76,.T.);
#301=EDGE_CURVE('',#263,#263,#77,.T.);
#302=EDGE_CURVE('',#264,#265,#338,.T.);
#303=EDGE_CURVE('',#266,#264,#339,.T.);
#304=EDGE_CURVE('',#267,#266,#340,.T.);
#305=EDGE_CURVE('',#267,#265,#341,.T.);
#306=EDGE_CURVE('',#268,#269,#342,.T.);
#307=EDGE_CURVE('',#270,#268,#343,.T.);
#308=EDGE_CURVE('',#270,#271,#344,.T.);
#309=EDGE_CURVE('',#271,#269,#345,.T.);
#310=EDGE_CURVE('',#272,#266,#346,.T.);
#311=EDGE_CURVE('',#273,#272,#347,.T.);
#312=EDGE_CURVE('',#273,#267,#348,.T.);
#313=EDGE_CURVE('',#274,#275,#349,.T.);
#314=EDGE_CURVE('',#269,#275,#350,.T.);
#315=EDGE_CURVE('',#271,#274,#351,.T.);
#316=EDGE_CURVE('',#276,#277,#352,.T.);
#317=EDGE_CURVE('',#275,#277,#353,.T.);
#318=EDGE_CURVE('',#274,#276,#354,.T.);
#319=EDGE_CURVE('',#278,#279,#355,.T.);
#320=EDGE_CURVE('',#277,#279,#356,.T.);
#321=EDGE_CURVE('',#276,#278,#357,.T.);
#322=EDGE_CURVE('',#278,#273,#358,.T.);
#323=EDGE_CURVE('',#279,#272,#359,.T.);
#324=EDGE_CURVE('',#265,#270,#360,.T.);
#325=EDGE_CURVE('',#268,#264,#361,.T.);
#326=LINE('',#531,#362);
#327=LINE('',#534,#363);
#328=LINE('',#536,#364);
#329=LINE('',#538,#365);
#330=LINE('',#540,#366);
#331=LINE('',#543,#367);
#332=LINE('',#545,#368);
#333=LINE('',#547,#369);
#334=LINE('',#549,#370);
#335=LINE('',#552,#371);
#336=LINE('',#554,#372);
#337=LINE('',#556,#373);
#338=LINE('',#580,#374);
#339=LINE('',#583,#375);
#340=LINE('',#585,#376);
#341=LINE('',#587,#377);
#342=LINE('',#589,#378);
#343=LINE('',#592,#379);
#344=LINE('',#594,#380);
#345=LINE('',#596,#381);
#346=LINE('',#598,#382);
#347=LINE('',#600,#383);
#348=LINE('',#602,#384);
#349=LINE('',#604,#385);
#350=LINE('',#607,#386);
#351=LINE('',#608,#387);
#352=LINE('',#610,#388);
#353=LINE('',#613,#389);
#354=LINE('',#614,#390);
#355=LINE('',#616,#391);
#356=LINE('',#619,#392);
#357=LINE('',#620,#393);
#358=LINE('',#622,#394);
#359=LINE('',#623,#395);
#360=LINE('',#625,#396);
#361=LINE('',#627,#397);
#362=VECTOR('',#432,1.);
#363=VECTOR('',#433,1.);
#364=VECTOR('',#434,1.);
#365=VECTOR('',#435,1.);
#366=VECTOR('',#438,1.);
#367=VECTOR('',#439,1.);
#368=VECTOR('',#440,1.);
#369=VECTOR('',#441,1.);
#370=VECTOR('',#444,1.);
#371=VECTOR('',#445,1.);
#372=VECTOR('',#446,1.);
#373=VECTOR('',#447,1.);
#374=VECTOR('',#486,1.);
#375=VECTOR('',#487,1.);
#376=VECTOR('',#488,1.);
#377=VECTOR('',#489,1.);
#378=VECTOR('',#492,1.);
#379=VECTOR('',#493,1.);
#380=VECTOR('',#494,1.);
#381=VECTOR('',#495,1.);
#382=VECTOR('',#498,1.);
#383=VECTOR('',#499,1.);
#384=VECTOR('',#500,1.);
#385=VECTOR('',#503,1.);
#386=VECTOR('',#504,1.);
#387=VECTOR('',#505,1.);
#388=VECTOR('',#508,1.);
#389=VECTOR('',#509,1.);
#390=VECTOR('',#510,1.);
#391=VECTOR('',#513,1.);
#392=VECTOR('',#514,1.);
#393=VECTOR('',#515,1.);
#394=VECTOR('',#518,1.);
#395=VECTOR('',#519,1.);
#396=VECTOR('',#522,1.);
#397=VECTOR('',#525,1.);
#398=AXIS2_PLACEMENT_3D('',#530,#430,#431);
#399=AXIS2_PLACEMENT_3D('',#539,#436,#437);
#400=AXIS2_PLACEMENT_3D('',#548,#442,#443);
#401=AXIS2_PLACEMENT_3D('',#557,#448,#449);
#402=AXIS2_PLACEMENT_3D('',#558,#450,#451);
#403=AXIS2_PLACEMENT_3D('',#560,#452,#453);
#404=AXIS2_PLACEMENT_3D('',#561,#454,#455);
#405=AXIS2_PLACEMENT_3D('',#562,#456,#457);
#406=AXIS2_PLACEMENT_3D('',#563,#458,#459);
#407=AXIS2_PLACEMENT_3D('',#564,#460,#461);
#408=AXIS2_PLACEMENT_3D('',#566,#462,#463);
#409=AXIS2_PLACEMENT_3D('',#567,#464,#465);
#410=AXIS2_PLACEMENT_3D('',#568,#466,#467);
#411=AXIS2_PLACEMENT_3D('',#569,#468,#469);
#412=AXIS2_PLACEMENT_3D('',#570,#470,#471);
#413=AXIS2_PLACEMENT_3D('',#572,#472,#473);
#414=AXIS2_PLACEMENT_3D('',#573,#474,#475);
#415=AXIS2_PLACEMENT_3D('',#574,#476,#477);
#416=AXIS2_PLACEMENT_3D('',#575,#478,#479);
#417=AXIS2_PLACEMENT_3D('',#576,#480,#481);
#418=AXIS2_PLACEMENT_3D('',#578,#482,#483);
#419=AXIS2_PLACEMENT_3D('',#579,#484,#485);
#420=AXIS2_PLACEMENT_3D('',#588,#490,#491);
#421=AXIS2_PLACEMENT_3D('',#597,#496,#497);
#422=AXIS2_PLACEMENT_3D('',#603,#501,#502);
#423=AXIS2_PLACEMENT_3D('',#609,#506,#507);
#424=AXIS2_PLACEMENT_3D('',#615,#511,#512);
#425=AXIS2_PLACEMENT_3D('',#621,#516,#517);
#426=AXIS2_PLACEMENT_3D('',#624,#520,#521);
#427=AXIS2_PLACEMENT_3D('',#626,#523,#524);
#428=AXIS2_PLACEMENT_3D('',#628,#526,#527);
#429=AXIS2_PLACEMENT_3D('',#629,#528,#529);
#430=DIRECTION('',(0.,0.,1.));
#431=DIRECTION('',(1.,0.,0.));
#432=DIRECTION('',(-0.891006524188368,-0.453990499739546,0.));
#433=DIRECTION('',(0.238156765786791,-0.0124812672161172,-0.971146524927447));
#434=DIRECTION('',(-0.891006524188368,-0.453990499739546,0.));
#435=DIRECTION('',(0.129887477373975,0.200009175646443,0.971146524927447));
#436=DIRECTION('',(0.450606523398207,-0.884365096670475,0.121869343405147));
#437=DIRECTION('',(0.891006524188368,0.453990499739546,4.73557528655205E-17));
#438=DIRECTION('',(0.838670567945424,-0.544639035015027,0.));
#439=DIRECTION('',(-0.238156765786791,0.0124812672161172,0.971146524927446));
#440=DIRECTION('',(0.838670567945424,-0.544639035015027,0.));
#441=DIRECTION('',(-0.108269288412816,0.21249044286256,-0.971146524927447));
#442=DIRECTION('',(0.540579378237808,0.832419244709073,0.121869343405147));
#443=DIRECTION('',(0.0663748015900942,0.102208231448731,-0.992546151641322));
#444=DIRECTION('',(0.052335956242944,0.998629534754574,0.));
#445=DIRECTION('',(-0.129887477373975,-0.200009175646443,-0.971146524927447));
#446=DIRECTION('',(0.052335956242944,0.998629534754574,0.));
#447=DIRECTION('',(0.108269288412816,-0.21249044286256,0.971146524927447));
#448=DIRECTION('',(-0.991185901636016,0.0519458519614027,0.121869343405147));
#449=DIRECTION('',(-0.052335956242944,-0.998629534754574,3.3825537761086E-18));
#450=DIRECTION('',(0.,0.,1.));
#451=DIRECTION('',(0.838670567945424,-0.544639035015027,0.));
#452=DIRECTION('',(0.,0.,1.));
#453=DIRECTION('',(-0.998629534754574,0.052335956242944,0.));
#454=DIRECTION('',(0.,0.,1.));
#455=DIRECTION('',(0.544639035015027,0.838670567945424,0.));
#456=DIRECTION('',(0.,0.,1.));
#457=DIRECTION('',(0.453990499739547,-0.891006524188368,0.));
#458=DIRECTION('',(0.,0.,1.));
#459=DIRECTION('',(0.838670567945424,-0.544639035015027,0.));
#460=DIRECTION('',(0.,0.,1.));
#461=DIRECTION('',(0.838670567945424,-0.544639035015027,0.));
#462=DIRECTION('',(0.,0.,-1.));
#463=DIRECTION('',(0.544639035015027,0.838670567945424,0.));
#464=DIRECTION('',(0.,0.,-1.));
#465=DIRECTION('',(-0.998629534754574,0.052335956242944,0.));
#466=DIRECTION('',(0.,0.,-1.));
#467=DIRECTION('',(0.453990499739547,-0.891006524188368,0.));
#468=DIRECTION('',(0.,0.,1.));
#469=DIRECTION('',(0.838670567945424,-0.544639035015027,0.));
#470=DIRECTION('',(0.,0.,-1.));
#471=DIRECTION('',(-0.838670567945424,0.544639035015027,0.));
#472=DIRECTION('',(0.,0.,-1.));
#473=DIRECTION('',(-0.838670567945424,0.544639035015027,0.));
#474=DIRECTION('',(-0.238156765786791,0.0124812672161172,0.971146524927447));
#475=DIRECTION('',(0.82032482488861,-0.532725170171082,0.208017005885735));
#476=DIRECTION('',(0.129887477373975,0.200009175646443,0.971146524927447));
#477=DIRECTION('',(0.528924306194682,0.814472007619126,-0.238483599271196));
#478=DIRECTION('',(0.108269288412816,-0.21249044286256,0.971146524927447));
#479=DIRECTION('',(0.820324824888609,-0.53272517017108,-0.208017005885735));
#480=DIRECTION('',(0.,0.,1.));
#481=DIRECTION('',(0.838670567945424,-0.544639035015027,0.));
#482=DIRECTION('',(0.,0.,-1.));
#483=DIRECTION('',(-0.838670567945424,0.544639035015027,0.));
#484=DIRECTION('',(0.,0.,1.));
#485=DIRECTION('',(0.838670567945424,-0.544639035015027,0.));
#486=DIRECTION('',(0.,0.,-1.));
#487=DIRECTION('',(0.0523359562429443,0.998629534754574,0.));
#488=DIRECTION('',(0.,0.,1.));
#489=DIRECTION('',(0.0523359562429443,0.998629534754574,0.));
#490=DIRECTION('',(-0.998629534754574,0.0523359562429443,0.));
#491=DIRECTION('',(-0.0523359562429443,-0.998629534754574,0.));
#492=DIRECTION('',(-1.,4.47093679375466E-17,0.));
#493=DIRECTION('',(0.,0.,1.));
#494=DIRECTION('',(-1.,4.47093679375466E-17,0.));
#495=DIRECTION('',(0.,0.,1.));
#496=DIRECTION('',(-4.47093679375466E-17,-1.,0.));
#497=DIRECTION('',(1.,-4.46691295064028E-17,0.));
#498=DIRECTION('',(0.707106781186547,0.707106781186547,0.));
#499=DIRECTION('',(0.,0.,1.));
#500=DIRECTION('',(0.707106781186547,0.707106781186547,0.));
#501=DIRECTION('',(-0.707106781186547,0.707106781186547,0.));
#502=DIRECTION('',(-0.707106781186547,-0.707106781186547,0.));
#503=DIRECTION('',(0.,0.,1.));
#504=DIRECTION('',(-0.707106781186548,-0.707106781186547,0.));
#505=DIRECTION('',(-0.707106781186548,-0.707106781186547,0.));
#506=DIRECTION('',(0.707106781186547,-0.707106781186548,0.));
#507=DIRECTION('',(0.707106781186548,0.707106781186547,0.));
#508=DIRECTION('',(0.,0.,1.));
#509=DIRECTION('',(-1.91682152041636E-16,-1.,0.));
#510=DIRECTION('',(-1.91682152041636E-16,-1.,0.));
#511=DIRECTION('',(1.,-1.91682152041636E-16,0.));
#512=DIRECTION('',(1.90819582357449E-16,1.,0.));
#513=DIRECTION('',(0.,0.,1.));
#514=DIRECTION('',(1.,0.,0.));
#515=DIRECTION('',(1.,0.,0.));
#516=DIRECTION('',(0.,1.,0.));
#517=DIRECTION('',(0.,0.,-1.));
#518=DIRECTION('',(1.02646359525255E-17,1.,0.));
#519=DIRECTION('',(1.02646359525255E-17,1.,0.));
#520=DIRECTION('',(-1.,1.02646359525255E-17,0.));
#521=DIRECTION('',(-1.04083408558608E-17,-1.,0.));
#522=DIRECTION('',(-0.688354575693754,0.725374371012288,0.));
#523=DIRECTION('',(0.,0.,-1.));
#524=DIRECTION('',(-1.,0.,0.));
#525=DIRECTION('',(0.688354575693754,-0.725374371012288,0.));
#526=DIRECTION('',(0.,0.,-1.));
#527=DIRECTION('',(-1.,0.,0.));
#528=DIRECTION('',(-0.725374371012288,-0.688354575693754,0.));
#529=DIRECTION('',(0.688354575693754,-0.725374371012288,0.));
#530=CARTESIAN_POINT('',(0.,0.,0.));
#531=CARTESIAN_POINT('',(0.132668397511765,-0.260376390705144,-2.38));
#532=CARTESIAN_POINT('',(-0.931022852230468,-0.802354152853345,-2.38));
#533=CARTESIAN_POINT('',(-8.60339577078296,-4.71162341286768,-2.38));
#534=CARTESIAN_POINT('',(-8.67988668660743,-4.70761469383399,-2.06808827729063));
#535=CARTESIAN_POINT('',(-9.18704930608744,-4.68103542721168,0.));
#536=CARTESIAN_POINT('',(-4.98732999343332E-15,-2.38524477946811E-15,0.));
#537=CARTESIAN_POINT('',(-0.612706111949539,-0.312189357099076,0.));
#538=CARTESIAN_POINT('',(-0.594259026479004,-0.283783336498506,0.13792571317839));
#539=CARTESIAN_POINT('',(-4.98732999343332E-15,-2.38524477946811E-15,0.));
#540=CARTESIAN_POINT('',(-9.79975541803698,-4.99322478431075,0.));
#541=CARTESIAN_POINT('',(-9.22303844802328,-5.3677491637635,0.));
#542=CARTESIAN_POINT('',(-1.152335169013,-10.6089251555968,0.));
#543=CARTESIAN_POINT('',(-9.25686232621906,-5.36597652942052,0.137925713178391));
#544=CARTESIAN_POINT('',(-8.63938491271881,-5.3983371494195,-2.38));
#545=CARTESIAN_POINT('',(-5.02852843837767,-7.74325476180303,-2.38));
#546=CARTESIAN_POINT('',(-1.41767196403654,-10.0881723741866,-2.38));
#547=CARTESIAN_POINT('',(-1.38289815864411,-10.1564198099661,-2.06808827729063));
#548=CARTESIAN_POINT('',(-9.79975541803698,-4.99322478431075,0.));
#549=CARTESIAN_POINT('',(-0.291826767652244,0.0152939928279949,-2.38));
#550=CARTESIAN_POINT('',(-0.80496585208701,-9.77598301708748,-2.38));
#551=CARTESIAN_POINT('',(-0.354305882216779,-1.1768785323061,-2.38));
#552=CARTESIAN_POINT('',(-0.312588771784741,-1.11263981556022,-2.06808827729063));
#553=CARTESIAN_POINT('',(-0.0359891419358484,-0.686713736551827,0.));
#554=CARTESIAN_POINT('',(-0.575618198999301,-10.9834495350496,0.));
#555=CARTESIAN_POINT('',(-0.539629057063463,-10.2967357984978,0.));
#556=CARTESIAN_POINT('',(-0.524252264338214,-10.3269144534413,0.13792571317839));
#557=CARTESIAN_POINT('',(-0.575618198999301,-10.9834495350496,0.));
#558=CARTESIAN_POINT('',(-3.45845787234542,-5.32555810645345,-2.38));
#559=CARTESIAN_POINT('',(-2.28431907722183,-6.08805275547448,-2.38));
#560=CARTESIAN_POINT('',(-8.41119862812559,-5.06599596207839,-2.38));
#561=CARTESIAN_POINT('',(-0.757300083565793,-1.16613986577681,-2.38));
#562=CARTESIAN_POINT('',(-1.2068749053449,-9.74453849150513,-2.38));
#563=CARTESIAN_POINT('',(-3.25260651745651E-15,-3.25260651745651E-15,-2.38));
#564=CARTESIAN_POINT('',(-3.45845787234542,-5.32555810645345,0.));
#565=CARTESIAN_POINT('',(-1.78111673645458,-6.4148361764835,0.));
#566=CARTESIAN_POINT('',(-0.438983343284858,-0.675975070022537,0.));
#567=CARTESIAN_POINT('',(-8.99485216343007,-5.03540797642239,0.));
#568=CARTESIAN_POINT('',(-0.941538110321362,-10.2652912729154,0.));
#569=CARTESIAN_POINT('',(-3.25260651745651E-15,-3.25260651745651E-15,0.));
#570=CARTESIAN_POINT('',(-3.45845787234542,-5.32555810645345,-1.41651513899117));
#571=CARTESIAN_POINT('',(-4.63259666746902,-4.56306345743241,-1.41651513899117));
#572=CARTESIAN_POINT('',(-3.45845787234542,-5.32555810645345,0.));
#573=CARTESIAN_POINT('',(-9.04063057492394,-5.03300883153689,0.18667345054045));
#574=CARTESIAN_POINT('',(-0.414016417119718,-0.637529375166693,0.18667345054045));
#575=CARTESIAN_POINT('',(-0.920726624992624,-10.3061361126567,0.18667345054045));
#576=CARTESIAN_POINT('',(-3.45845787234542,-5.32555810645345,-0.5));
#577=CARTESIAN_POINT('',(-1.78111673645458,-6.4148361764835,-0.5));
#578=CARTESIAN_POINT('',(-3.45845787234542,-5.32555810645345,0.));
#579=CARTESIAN_POINT('',(-3.45845787234542,-5.32555810645345,-1.41651513899117));
#580=CARTESIAN_POINT('',(-0.586667495736653,-1.1199717748294,-15.98));
#581=CARTESIAN_POINT('',(-0.586667495736654,-1.11997177482939,0.0199999999999996));
#582=CARTESIAN_POINT('',(-0.586667495736653,-1.1199717748294,-15.98));
#583=CARTESIAN_POINT('',(-1.25123367506331,-13.8006498806025,0.0199999999999996));
#584=CARTESIAN_POINT('',(-1.25123367506331,-13.8006498806025,0.0199999999999996));
#585=CARTESIAN_POINT('',(-1.25123367506331,-13.8006498806025,-15.98));
#586=CARTESIAN_POINT('',(-1.25123367506331,-13.8006498806025,-15.98));
#587=CARTESIAN_POINT('',(-1.25123367506331,-13.8006498806025,-15.98));
#588=CARTESIAN_POINT('',(-1.25123367506331,-13.8006498806025,-15.98));
#589=CARTESIAN_POINT('',(-0.570966708863769,-0.820382914403024,0.0199999999999996));
#590=CARTESIAN_POINT('',(-0.870966708863767,-0.820382914403024,0.0199999999999996));
#591=CARTESIAN_POINT('',(-10.2709667088638,-0.820382914403024,0.0199999999999996));
#592=CARTESIAN_POINT('',(-0.870966708863767,-0.820382914403024,-15.98));
#593=CARTESIAN_POINT('',(-0.870966708863767,-0.820382914403024,-15.98));
#594=CARTESIAN_POINT('',(-0.570966708863769,-0.820382914403024,-15.98));
#595=CARTESIAN_POINT('',(-10.2709667088638,-0.820382914403024,-15.98));
#596=CARTESIAN_POINT('',(-10.2709667088638,-0.820382914403024,-15.98));
#597=CARTESIAN_POINT('',(-0.570966708863769,-0.820382914403024,-15.98));
#598=CARTESIAN_POINT('',(-4.27096670886377,-16.820382914403,0.0199999999999996));
#599=CARTESIAN_POINT('',(-4.27096670886377,-16.820382914403,0.0199999999999996));
#600=CARTESIAN_POINT('',(-4.27096670886377,-16.820382914403,-15.98));
#601=CARTESIAN_POINT('',(-4.27096670886377,-16.820382914403,-15.98));
#602=CARTESIAN_POINT('',(-4.27096670886377,-16.820382914403,-15.98));
#603=CARTESIAN_POINT('',(-4.27096670886377,-16.820382914403,-15.98));
#604=CARTESIAN_POINT('',(-20.2709667088638,-10.820382914403,-15.98));
#605=CARTESIAN_POINT('',(-20.2709667088638,-10.820382914403,-15.98));
#606=CARTESIAN_POINT('',(-20.2709667088638,-10.820382914403,0.0199999999999996));
#607=CARTESIAN_POINT('',(-10.2709667088638,-0.820382914403024,0.0199999999999996));
#608=CARTESIAN_POINT('',(-10.2709667088638,-0.820382914403024,-15.98));
#609=CARTESIAN_POINT('',(-10.2709667088638,-0.820382914403024,-15.98));
#610=CARTESIAN_POINT('',(-20.2709667088638,-101.320382914403,-15.98));
#611=CARTESIAN_POINT('',(-20.2709667088638,-101.320382914403,-15.98));
#612=CARTESIAN_POINT('',(-20.2709667088638,-101.320382914403,0.0199999999999996));
#613=CARTESIAN_POINT('',(-20.2709667088638,-10.820382914403,0.0199999999999996));
#614=CARTESIAN_POINT('',(-20.2709667088638,-10.820382914403,-15.98));
#615=CARTESIAN_POINT('',(-20.2709667088638,-10.820382914403,-15.98));
#616=CARTESIAN_POINT('',(-4.27096670886378,-101.320382914403,-15.98));
#617=CARTESIAN_POINT('',(-4.27096670886378,-101.320382914403,-15.98));
#618=CARTESIAN_POINT('',(-4.27096670886378,-101.320382914403,0.0199999999999996));
#619=CARTESIAN_POINT('',(-20.2709667088638,-101.320382914403,0.0199999999999996));
#620=CARTESIAN_POINT('',(-20.2709667088638,-101.320382914403,-15.98));
#621=CARTESIAN_POINT('',(-20.2709667088638,-101.320382914403,-15.98));
#622=CARTESIAN_POINT('',(-4.27096670886378,-101.320382914403,-15.98));
#623=CARTESIAN_POINT('',(-4.27096670886378,-101.320382914403,0.0199999999999996));
#624=CARTESIAN_POINT('',(-4.27096670886378,-101.320382914403,-15.98));
#625=CARTESIAN_POINT('',(5.50704069478583,-7.5414003552638,-15.98));
#626=CARTESIAN_POINT('',(-4.27096670886377,-16.820382914403,-15.98));
#627=CARTESIAN_POINT('',(5.50704069478582,-7.54140035526379,0.0199999999999996));
#628=CARTESIAN_POINT('',(-4.27096670886377,-16.820382914403,0.0199999999999996));
#629=CARTESIAN_POINT('',(-0.870966708863767,-0.820382914403024,-15.98));
#630=MECHANICAL_DESIGN_GEOMETRIC_PRESENTATION_REPRESENTATION('',(#32,#33),
#631);
#631=(
GEOMETRIC_REPRESENTATION_CONTEXT(3)
GLOBAL_UNCERTAINTY_ASSIGNED_CONTEXT((#632))
GLOBAL_UNIT_ASSIGNED_CONTEXT((#638,#634,#633))
REPRESENTATION_CONTEXT('STJCL1616H11_SIM','TOP_LEVEL_ASSEMBLY_PART')
);
#632=UNCERTAINTY_MEASURE_WITH_UNIT(LENGTH_MEASURE(2.E-5),#638,
'DISTANCE_ACCURACY_VALUE','Maximum Tolerance applied to model');
#633=(
NAMED_UNIT(*)
SI_UNIT($,.STERADIAN.)
SOLID_ANGLE_UNIT()
);
#634=(
CONVERSION_BASED_UNIT('DEGREE',#636)
NAMED_UNIT(#635)
PLANE_ANGLE_UNIT()
);
#635=DIMENSIONAL_EXPONENTS(0.,0.,0.,0.,0.,0.,0.);
#636=PLANE_ANGLE_MEASURE_WITH_UNIT(PLANE_ANGLE_MEASURE(0.0174532925),#637);
#637=(
NAMED_UNIT(*)
PLANE_ANGLE_UNIT()
SI_UNIT($,.RADIAN.)
);
#638=(
LENGTH_UNIT()
NAMED_UNIT(*)
SI_UNIT(.MILLI.,.METRE.)
);
ENDSEC;
END-ISO-10303-21;
