ISO-10303-21;
HEADER;
/* Generated by software containing ST-Developer
 * from STEP Tools, Inc. (www.steptools.com) 
 */
/* OPTION: using custom schema-name function */

FILE_DESCRIPTION(
/* description */ (''),
/* implementation_level */ '2;1');

FILE_NAME(
/* name */ 'SRDCN1212F06_SIM.stp',
/* time_stamp */ '2022-11-30T07:06:11+01:00',
/* author */ (''),
/* organization */ (''),
/* preprocessor_version */ 'ST-DEVELOPER v18.102',
/* originating_system */ 'SIEMENS PLM Software NX 2027',
/* authorisation */ '');

FILE_SCHEMA (('AUTOMOTIVE_DESIGN { 1 0 10303 214 3 1 1 1 }'));
ENDSEC;

DATA;
#10=SHAPE_REPRESENTATION_RELATIONSHIP('None',
'relationship between model1-None and model1-None',#22,#11);
#11=ADVANCED_BREP_SHAPE_REPRESENTATION('model1-None',(#86,#87),#455);
#12=SHAPE_DEFINITION_REPRESENTATION(#13,#22);
#13=PRODUCT_DEFINITION_SHAPE('','',#14);
#14=PRODUCT_DEFINITION(' ','',#16,#15);
#15=PRODUCT_DEFINITION_CONTEXT('part definition',#21,'design');
#16=PRODUCT_DEFINITION_FORMATION_WITH_SPECIFIED_SOURCE(' ',' ',#18,
 .NOT_KNOWN.);
#17=PRODUCT_RELATED_PRODUCT_CATEGORY('part','',(#18));
#18=PRODUCT('model1','model1',' ',(#19));
#19=PRODUCT_CONTEXT(' ',#21,'mechanical');
#20=APPLICATION_PROTOCOL_DEFINITION('international standard',
'automotive_design',2010,#21);
#21=APPLICATION_CONTEXT(
'core data for automotive mechanical design processes');
#22=SHAPE_REPRESENTATION('model1-None',(#280),#455);
#23=FACE_OUTER_BOUND('',#146,.T.);
#24=FACE_OUTER_BOUND('',#147,.T.);
#25=FACE_OUTER_BOUND('',#148,.T.);
#26=FACE_OUTER_BOUND('',#149,.T.);
#27=FACE_OUTER_BOUND('',#150,.T.);
#28=FACE_OUTER_BOUND('',#151,.T.);
#29=FACE_OUTER_BOUND('',#152,.T.);
#30=FACE_OUTER_BOUND('',#153,.T.);
#31=FACE_OUTER_BOUND('',#154,.T.);
#32=FACE_OUTER_BOUND('',#155,.T.);
#33=LINE('',#407,#51);
#34=LINE('',#411,#52);
#35=LINE('',#413,#53);
#36=LINE('',#415,#54);
#37=LINE('',#417,#55);
#38=LINE('',#421,#56);
#39=LINE('',#425,#57);
#40=LINE('',#427,#58);
#41=LINE('',#429,#59);
#42=LINE('',#433,#60);
#43=LINE('',#437,#61);
#44=LINE('',#439,#62);
#45=LINE('',#441,#63);
#46=LINE('',#443,#64);
#47=LINE('',#445,#65);
#48=LINE('',#447,#66);
#49=LINE('',#449,#67);
#50=LINE('',#450,#68);
#51=VECTOR('',#337,1.);
#52=VECTOR('',#340,1.);
#53=VECTOR('',#343,1.);
#54=VECTOR('',#344,1.);
#55=VECTOR('',#345,1.);
#56=VECTOR('',#350,1.);
#57=VECTOR('',#355,1.);
#58=VECTOR('',#356,1.);
#59=VECTOR('',#357,1.);
#60=VECTOR('',#362,1.);
#61=VECTOR('',#367,1.);
#62=VECTOR('',#368,1.);
#63=VECTOR('',#369,1.);
#64=VECTOR('',#372,1.);
#65=VECTOR('',#373,1.);
#66=VECTOR('',#374,1.);
#67=VECTOR('',#377,1.);
#68=VECTOR('',#378,1.);
#69=PRESENTATION_LAYER_ASSIGNMENT('1','Layer 1',(#86,#87));
#70=STYLED_ITEM('',(#72),#86);
#71=STYLED_ITEM('',(#73),#87);
#72=PRESENTATION_STYLE_ASSIGNMENT((#74));
#73=PRESENTATION_STYLE_ASSIGNMENT((#75));
#74=SURFACE_STYLE_USAGE(.BOTH.,#76);
#75=SURFACE_STYLE_USAGE(.BOTH.,#77);
#76=SURFACE_SIDE_STYLE('',(#78));
#77=SURFACE_SIDE_STYLE('',(#79));
#78=SURFACE_STYLE_FILL_AREA(#80);
#79=SURFACE_STYLE_FILL_AREA(#81);
#80=FILL_AREA_STYLE('',(#82));
#81=FILL_AREA_STYLE('',(#83));
#82=FILL_AREA_STYLE_COLOUR('',#84);
#83=FILL_AREA_STYLE_COLOUR('',#85);
#84=COLOUR_RGB('light gray',0.8,0.8,0.8);
#85=COLOUR_RGB('medium gray',0.490196078431373,0.490196078431373,0.490196078431373);
#86=MANIFOLD_SOLID_BREP('',#88);
#87=MANIFOLD_SOLID_BREP('',#89);
#88=CLOSED_SHELL('',(#105,#106,#107,#108,#109,#110));
#89=CLOSED_SHELL('',(#111,#112,#113,#114,#115,#116,#117,#118,#119,#120));
#90=TOROIDAL_SURFACE('',#292,2.2,0.8);
#91=CYLINDRICAL_SURFACE('',#289,1.4);
#92=CYLINDRICAL_SURFACE('',#291,2.);
#93=CYLINDRICAL_SURFACE('',#295,9.9);
#94=CYLINDRICAL_SURFACE('',#299,2.6250000000001);
#95=CYLINDRICAL_SURFACE('',#303,9.9);
#96=PLANE('',#285);
#97=PLANE('',#287);
#98=PLANE('',#296);
#99=PLANE('',#300);
#100=PLANE('',#304);
#101=PLANE('',#305);
#102=PLANE('',#306);
#103=PLANE('',#307);
#104=PLANE('',#308);
#105=ADVANCED_FACE('',(#122,#123),#121,.T.);
#106=ADVANCED_FACE('',(#124,#125),#96,.F.);
#107=ADVANCED_FACE('',(#126,#127),#97,.T.);
#108=ADVANCED_FACE('',(#128,#129),#91,.F.);
#109=ADVANCED_FACE('',(#130,#131),#92,.F.);
#110=ADVANCED_FACE('',(#132,#133),#90,.T.);
#111=ADVANCED_FACE('',(#23),#93,.F.);
#112=ADVANCED_FACE('',(#24),#98,.T.);
#113=ADVANCED_FACE('',(#25),#94,.T.);
#114=ADVANCED_FACE('',(#26),#99,.T.);
#115=ADVANCED_FACE('',(#27),#95,.F.);
#116=ADVANCED_FACE('',(#28),#100,.T.);
#117=ADVANCED_FACE('',(#29),#101,.T.);
#118=ADVANCED_FACE('',(#30),#102,.T.);
#119=ADVANCED_FACE('',(#31),#103,.F.);
#120=ADVANCED_FACE('',(#32),#104,.T.);
#121=CONICAL_SURFACE('',#283,3.,7.);
#122=FACE_BOUND('',#134,.T.);
#123=FACE_BOUND('',#135,.T.);
#124=FACE_BOUND('',#136,.T.);
#125=FACE_BOUND('',#137,.T.);
#126=FACE_BOUND('',#138,.T.);
#127=FACE_BOUND('',#139,.T.);
#128=FACE_BOUND('',#140,.T.);
#129=FACE_BOUND('',#141,.T.);
#130=FACE_BOUND('',#142,.T.);
#131=FACE_BOUND('',#143,.T.);
#132=FACE_BOUND('',#144,.T.);
#133=FACE_BOUND('',#145,.T.);
#134=EDGE_LOOP('',(#156));
#135=EDGE_LOOP('',(#157));
#136=EDGE_LOOP('',(#158));
#137=EDGE_LOOP('',(#159));
#138=EDGE_LOOP('',(#160));
#139=EDGE_LOOP('',(#161));
#140=EDGE_LOOP('',(#162));
#141=EDGE_LOOP('',(#163));
#142=EDGE_LOOP('',(#164));
#143=EDGE_LOOP('',(#165));
#144=EDGE_LOOP('',(#166));
#145=EDGE_LOOP('',(#167));
#146=EDGE_LOOP('',(#168,#169,#170,#171));
#147=EDGE_LOOP('',(#172,#173,#174,#175));
#148=EDGE_LOOP('',(#176,#177,#178,#179));
#149=EDGE_LOOP('',(#180,#181,#182,#183));
#150=EDGE_LOOP('',(#184,#185,#186,#187));
#151=EDGE_LOOP('',(#188,#189,#190,#191));
#152=EDGE_LOOP('',(#192,#193,#194,#195));
#153=EDGE_LOOP('',(#196,#197,#198,#199));
#154=EDGE_LOOP('',(#200,#201,#202,#203,#204,#205,#206,#207));
#155=EDGE_LOOP('',(#208,#209,#210,#211,#212,#213,#214,#215));
#156=ORIENTED_EDGE('',*,*,#238,.T.);
#157=ORIENTED_EDGE('',*,*,#239,.F.);
#158=ORIENTED_EDGE('',*,*,#240,.F.);
#159=ORIENTED_EDGE('',*,*,#238,.F.);
#160=ORIENTED_EDGE('',*,*,#241,.T.);
#161=ORIENTED_EDGE('',*,*,#239,.T.);
#162=ORIENTED_EDGE('',*,*,#242,.T.);
#163=ORIENTED_EDGE('',*,*,#240,.T.);
#164=ORIENTED_EDGE('',*,*,#243,.T.);
#165=ORIENTED_EDGE('',*,*,#241,.F.);
#166=ORIENTED_EDGE('',*,*,#242,.F.);
#167=ORIENTED_EDGE('',*,*,#243,.F.);
#168=ORIENTED_EDGE('',*,*,#244,.T.);
#169=ORIENTED_EDGE('',*,*,#245,.F.);
#170=ORIENTED_EDGE('',*,*,#246,.F.);
#171=ORIENTED_EDGE('',*,*,#247,.T.);
#172=ORIENTED_EDGE('',*,*,#248,.F.);
#173=ORIENTED_EDGE('',*,*,#249,.F.);
#174=ORIENTED_EDGE('',*,*,#250,.T.);
#175=ORIENTED_EDGE('',*,*,#245,.T.);
#176=ORIENTED_EDGE('',*,*,#251,.F.);
#177=ORIENTED_EDGE('',*,*,#252,.F.);
#178=ORIENTED_EDGE('',*,*,#253,.T.);
#179=ORIENTED_EDGE('',*,*,#249,.T.);
#180=ORIENTED_EDGE('',*,*,#254,.F.);
#181=ORIENTED_EDGE('',*,*,#255,.F.);
#182=ORIENTED_EDGE('',*,*,#256,.T.);
#183=ORIENTED_EDGE('',*,*,#252,.T.);
#184=ORIENTED_EDGE('',*,*,#257,.T.);
#185=ORIENTED_EDGE('',*,*,#258,.F.);
#186=ORIENTED_EDGE('',*,*,#259,.F.);
#187=ORIENTED_EDGE('',*,*,#255,.T.);
#188=ORIENTED_EDGE('',*,*,#260,.F.);
#189=ORIENTED_EDGE('',*,*,#261,.F.);
#190=ORIENTED_EDGE('',*,*,#262,.T.);
#191=ORIENTED_EDGE('',*,*,#258,.T.);
#192=ORIENTED_EDGE('',*,*,#263,.F.);
#193=ORIENTED_EDGE('',*,*,#264,.F.);
#194=ORIENTED_EDGE('',*,*,#265,.T.);
#195=ORIENTED_EDGE('',*,*,#261,.T.);
#196=ORIENTED_EDGE('',*,*,#266,.F.);
#197=ORIENTED_EDGE('',*,*,#247,.F.);
#198=ORIENTED_EDGE('',*,*,#267,.T.);
#199=ORIENTED_EDGE('',*,*,#264,.T.);
#200=ORIENTED_EDGE('',*,*,#246,.T.);
#201=ORIENTED_EDGE('',*,*,#250,.F.);
#202=ORIENTED_EDGE('',*,*,#253,.F.);
#203=ORIENTED_EDGE('',*,*,#256,.F.);
#204=ORIENTED_EDGE('',*,*,#259,.T.);
#205=ORIENTED_EDGE('',*,*,#262,.F.);
#206=ORIENTED_EDGE('',*,*,#265,.F.);
#207=ORIENTED_EDGE('',*,*,#267,.F.);
#208=ORIENTED_EDGE('',*,*,#244,.F.);
#209=ORIENTED_EDGE('',*,*,#266,.T.);
#210=ORIENTED_EDGE('',*,*,#263,.T.);
#211=ORIENTED_EDGE('',*,*,#260,.T.);
#212=ORIENTED_EDGE('',*,*,#257,.F.);
#213=ORIENTED_EDGE('',*,*,#254,.T.);
#214=ORIENTED_EDGE('',*,*,#251,.T.);
#215=ORIENTED_EDGE('',*,*,#248,.T.);
#216=VERTEX_POINT('',#387);
#217=VERTEX_POINT('',#389);
#218=VERTEX_POINT('',#392);
#219=VERTEX_POINT('',#395);
#220=VERTEX_POINT('',#398);
#221=VERTEX_POINT('',#401);
#222=VERTEX_POINT('',#405);
#223=VERTEX_POINT('',#406);
#224=VERTEX_POINT('',#408);
#225=VERTEX_POINT('',#410);
#226=VERTEX_POINT('',#414);
#227=VERTEX_POINT('',#416);
#228=VERTEX_POINT('',#420);
#229=VERTEX_POINT('',#422);
#230=VERTEX_POINT('',#426);
#231=VERTEX_POINT('',#428);
#232=VERTEX_POINT('',#432);
#233=VERTEX_POINT('',#434);
#234=VERTEX_POINT('',#438);
#235=VERTEX_POINT('',#440);
#236=VERTEX_POINT('',#444);
#237=VERTEX_POINT('',#446);
#238=EDGE_CURVE('',#216,#216,#268,.T.);
#239=EDGE_CURVE('',#217,#217,#269,.T.);
#240=EDGE_CURVE('',#218,#218,#270,.T.);
#241=EDGE_CURVE('',#219,#219,#271,.T.);
#242=EDGE_CURVE('',#220,#220,#272,.T.);
#243=EDGE_CURVE('',#221,#221,#273,.T.);
#244=EDGE_CURVE('',#222,#223,#274,.T.);
#245=EDGE_CURVE('',#224,#223,#33,.T.);
#246=EDGE_CURVE('',#225,#224,#275,.T.);
#247=EDGE_CURVE('',#225,#222,#34,.T.);
#248=EDGE_CURVE('',#226,#223,#35,.T.);
#249=EDGE_CURVE('',#227,#226,#36,.T.);
#250=EDGE_CURVE('',#227,#224,#37,.T.);
#251=EDGE_CURVE('',#228,#226,#276,.T.);
#252=EDGE_CURVE('',#229,#228,#38,.T.);
#253=EDGE_CURVE('',#229,#227,#277,.T.);
#254=EDGE_CURVE('',#230,#228,#39,.T.);
#255=EDGE_CURVE('',#231,#230,#40,.T.);
#256=EDGE_CURVE('',#231,#229,#41,.T.);
#257=EDGE_CURVE('',#230,#232,#278,.T.);
#258=EDGE_CURVE('',#233,#232,#42,.T.);
#259=EDGE_CURVE('',#231,#233,#279,.T.);
#260=EDGE_CURVE('',#234,#232,#43,.T.);
#261=EDGE_CURVE('',#235,#234,#44,.T.);
#262=EDGE_CURVE('',#235,#233,#45,.T.);
#263=EDGE_CURVE('',#236,#234,#46,.T.);
#264=EDGE_CURVE('',#237,#236,#47,.T.);
#265=EDGE_CURVE('',#237,#235,#48,.T.);
#266=EDGE_CURVE('',#222,#236,#49,.T.);
#267=EDGE_CURVE('',#225,#237,#50,.T.);
#268=CIRCLE('',#281,2.70777274505108);
#269=CIRCLE('',#282,3.);
#270=CIRCLE('',#284,1.4);
#271=CIRCLE('',#286,2.);
#272=CIRCLE('',#288,1.4);
#273=CIRCLE('',#290,2.);
#274=CIRCLE('',#293,9.9);
#275=CIRCLE('',#294,9.9);
#276=CIRCLE('',#297,2.6250000000001);
#277=CIRCLE('',#298,2.6250000000001);
#278=CIRCLE('',#301,9.9);
#279=CIRCLE('',#302,9.9);
#280=AXIS2_PLACEMENT_3D('',#385,#309,#310);
#281=AXIS2_PLACEMENT_3D('',#386,#311,#312);
#282=AXIS2_PLACEMENT_3D('',#388,#313,#314);
#283=AXIS2_PLACEMENT_3D('',#390,#315,#316);
#284=AXIS2_PLACEMENT_3D('',#391,#317,#318);
#285=AXIS2_PLACEMENT_3D('',#393,#319,#320);
#286=AXIS2_PLACEMENT_3D('',#394,#321,#322);
#287=AXIS2_PLACEMENT_3D('',#396,#323,#324);
#288=AXIS2_PLACEMENT_3D('',#397,#325,#326);
#289=AXIS2_PLACEMENT_3D('',#399,#327,#328);
#290=AXIS2_PLACEMENT_3D('',#400,#329,#330);
#291=AXIS2_PLACEMENT_3D('',#402,#331,#332);
#292=AXIS2_PLACEMENT_3D('',#403,#333,#334);
#293=AXIS2_PLACEMENT_3D('',#404,#335,#336);
#294=AXIS2_PLACEMENT_3D('',#409,#338,#339);
#295=AXIS2_PLACEMENT_3D('',#412,#341,#342);
#296=AXIS2_PLACEMENT_3D('',#418,#346,#347);
#297=AXIS2_PLACEMENT_3D('',#419,#348,#349);
#298=AXIS2_PLACEMENT_3D('',#423,#351,#352);
#299=AXIS2_PLACEMENT_3D('',#424,#353,#354);
#300=AXIS2_PLACEMENT_3D('',#430,#358,#359);
#301=AXIS2_PLACEMENT_3D('',#431,#360,#361);
#302=AXIS2_PLACEMENT_3D('',#435,#363,#364);
#303=AXIS2_PLACEMENT_3D('',#436,#365,#366);
#304=AXIS2_PLACEMENT_3D('',#442,#370,#371);
#305=AXIS2_PLACEMENT_3D('',#448,#375,#376);
#306=AXIS2_PLACEMENT_3D('',#451,#379,#380);
#307=AXIS2_PLACEMENT_3D('',#452,#381,#382);
#308=AXIS2_PLACEMENT_3D('',#453,#383,#384);
#309=DIRECTION('',(0.,0.,1.));
#310=DIRECTION('',(1.,0.,0.));
#311=DIRECTION('',(0.,0.,1.));
#312=DIRECTION('',(-1.,0.,0.));
#313=DIRECTION('',(0.,0.,1.));
#314=DIRECTION('',(-1.,0.,0.));
#315=DIRECTION('',(0.,0.,1.));
#316=DIRECTION('',(-1.,0.,1.96632733638254E-18));
#317=DIRECTION('',(0.,0.,-1.));
#318=DIRECTION('',(1.,0.,0.));
#319=DIRECTION('',(0.,0.,1.));
#320=DIRECTION('',(-1.,0.,0.));
#321=DIRECTION('',(0.,0.,-1.));
#322=DIRECTION('',(1.,0.,0.));
#323=DIRECTION('',(0.,0.,1.));
#324=DIRECTION('',(-1.,0.,0.));
#325=DIRECTION('',(0.,0.,1.));
#326=DIRECTION('',(-1.,0.,0.));
#327=DIRECTION('',(0.,0.,-1.));
#328=DIRECTION('',(1.,0.,0.));
#329=DIRECTION('',(0.,0.,-1.));
#330=DIRECTION('',(1.,0.,0.));
#331=DIRECTION('',(0.,0.,-1.));
#332=DIRECTION('',(1.,0.,0.));
#333=DIRECTION('',(0.,0.,1.));
#334=DIRECTION('',(-1.,0.,0.));
#335=DIRECTION('',(0.,0.,1.));
#336=DIRECTION('',(1.,0.,0.));
#337=DIRECTION('',(0.,0.,1.));
#338=DIRECTION('',(0.,0.,1.));
#339=DIRECTION('',(1.,0.,0.));
#340=DIRECTION('',(0.,0.,1.));
#341=DIRECTION('',(0.,0.,1.));
#342=DIRECTION('',(1.,0.,0.));
#343=DIRECTION('',(5.17578184736957E-14,-1.,0.));
#344=DIRECTION('',(0.,0.,1.));
#345=DIRECTION('',(5.17578184736957E-14,-1.,0.));
#346=DIRECTION('',(-1.,-5.17578184736957E-14,0.));
#347=DIRECTION('',(5.1757643310113E-14,-1.,0.));
#348=DIRECTION('',(0.,0.,1.));
#349=DIRECTION('',(1.,0.,0.));
#350=DIRECTION('',(0.,0.,1.));
#351=DIRECTION('',(0.,0.,1.));
#352=DIRECTION('',(1.,0.,0.));
#353=DIRECTION('',(0.,0.,1.));
#354=DIRECTION('',(1.,0.,0.));
#355=DIRECTION('',(2.89925929132617E-16,1.,0.));
#356=DIRECTION('',(0.,0.,1.));
#357=DIRECTION('',(2.89925929132617E-16,1.,0.));
#358=DIRECTION('',(1.,-2.89925929132617E-16,0.));
#359=DIRECTION('',(2.90132501357121E-16,1.,0.));
#360=DIRECTION('',(0.,0.,1.));
#361=DIRECTION('',(1.,0.,0.));
#362=DIRECTION('',(0.,0.,1.));
#363=DIRECTION('',(0.,0.,1.));
#364=DIRECTION('',(1.,0.,0.));
#365=DIRECTION('',(0.,0.,1.));
#366=DIRECTION('',(1.,0.,0.));
#367=DIRECTION('',(1.28799659687108E-15,1.,0.));
#368=DIRECTION('',(0.,0.,1.));
#369=DIRECTION('',(1.28799659687108E-15,1.,0.));
#370=DIRECTION('',(1.,-1.28799659687108E-15,0.));
#371=DIRECTION('',(1.28803218091278E-15,1.,0.));
#372=DIRECTION('',(1.,0.,0.));
#373=DIRECTION('',(0.,0.,1.));
#374=DIRECTION('',(1.,0.,0.));
#375=DIRECTION('',(0.,-1.,0.));
#376=DIRECTION('',(0.,0.,-1.));
#377=DIRECTION('',(-1.1479969667764E-15,-1.,0.));
#378=DIRECTION('',(-1.1479969667764E-15,-1.,0.));
#379=DIRECTION('',(-1.,1.1479969667764E-15,0.));
#380=DIRECTION('',(-1.14838694109665E-15,-1.,0.));
#381=DIRECTION('',(0.,0.,1.));
#382=DIRECTION('',(1.,0.,0.));
#383=DIRECTION('',(0.,0.,1.));
#384=DIRECTION('',(1.,0.,0.));
#385=CARTESIAN_POINT('',(0.,0.,0.));
#386=CARTESIAN_POINT('',(4.98732999343332E-14,-2.994,-2.38));
#387=CARTESIAN_POINT('',(-2.70777274505103,-2.994,-2.38));
#388=CARTESIAN_POINT('',(4.98732999343332E-14,-2.994,-2.47333620598256E-16));
#389=CARTESIAN_POINT('',(-2.99999999999995,-2.994,-2.47333620598256E-16));
#390=CARTESIAN_POINT('',(4.98732999343332E-14,-2.994,-2.47333620598256E-16));
#391=CARTESIAN_POINT('',(4.98732999343332E-14,-2.994,-2.38));
#392=CARTESIAN_POINT('',(1.40000000000005,-2.994,-2.38));
#393=CARTESIAN_POINT('',(4.98732999343332E-14,-2.994,-2.38));
#394=CARTESIAN_POINT('',(4.98732999343332E-14,-2.994,-2.47333620598256E-16));
#395=CARTESIAN_POINT('',(2.00000000000005,-2.994,-2.47333620598256E-16));
#396=CARTESIAN_POINT('',(4.98732999343332E-14,-2.994,-2.47333620598256E-16));
#397=CARTESIAN_POINT('',(4.98732999343332E-14,-2.994,-1.17459666924148));
#398=CARTESIAN_POINT('',(-1.39999999999995,-2.994,-1.17459666924148));
#399=CARTESIAN_POINT('',(4.98732999343332E-14,-2.994,-2.38));
#400=CARTESIAN_POINT('',(4.98732999343332E-14,-2.994,-0.4));
#401=CARTESIAN_POINT('',(2.00000000000005,-2.994,-0.4));
#402=CARTESIAN_POINT('',(4.98732999343332E-14,-2.994,-2.47333620598256E-16));
#403=CARTESIAN_POINT('',(4.98732999343332E-14,-2.994,-1.17459666924148));
#404=CARTESIAN_POINT('',(-12.5249999999998,-11.9941735515014,-0.0300000000000002));
#405=CARTESIAN_POINT('',(-6.,-19.4396,-0.0300000000000002));
#406=CARTESIAN_POINT('',(-2.62499999999982,-11.9941735515014,-0.0300000000000002));
#407=CARTESIAN_POINT('',(-2.62499999999982,-11.9941735515014,-12.03));
#408=CARTESIAN_POINT('',(-2.62499999999982,-11.9941735515014,-12.03));
#409=CARTESIAN_POINT('',(-12.5249999999998,-11.9941735515014,-12.03));
#410=CARTESIAN_POINT('',(-6.,-19.4396,-12.03));
#411=CARTESIAN_POINT('',(-6.,-19.4396,-12.03));
#412=CARTESIAN_POINT('',(-12.5249999999998,-11.9941735515014,-12.03));
#413=CARTESIAN_POINT('',(-2.62500000000029,-3.01917355150155,-0.0300000000000002));
#414=CARTESIAN_POINT('',(-2.62500000000029,-3.01917355150155,-0.0300000000000002));
#415=CARTESIAN_POINT('',(-2.62500000000029,-3.01917355150155,-12.03));
#416=CARTESIAN_POINT('',(-2.62500000000029,-3.01917355150155,-12.03));
#417=CARTESIAN_POINT('',(-2.62500000000029,-3.01917355150155,-12.03));
#418=CARTESIAN_POINT('',(-2.62500000000029,-3.01917355150155,-12.03));
#419=CARTESIAN_POINT('',(-1.8995222061946E-13,-3.01917355150155,-0.0300000000000002));
#420=CARTESIAN_POINT('',(2.62499999999991,-3.01917355150155,-0.0300000000000002));
#421=CARTESIAN_POINT('',(2.62499999999991,-3.01917355150155,-12.03));
#422=CARTESIAN_POINT('',(2.62499999999991,-3.01917355150155,-12.03));
#423=CARTESIAN_POINT('',(-1.8995222061946E-13,-3.01917355150155,-12.03));
#424=CARTESIAN_POINT('',(-1.8995222061946E-13,-3.01917355150155,-12.03));
#425=CARTESIAN_POINT('',(2.6249999999999,-11.9941735515014,-0.0300000000000002));
#426=CARTESIAN_POINT('',(2.6249999999999,-11.9941735515014,-0.0300000000000002));
#427=CARTESIAN_POINT('',(2.6249999999999,-11.9941735515014,-12.03));
#428=CARTESIAN_POINT('',(2.6249999999999,-11.9941735515014,-12.03));
#429=CARTESIAN_POINT('',(2.6249999999999,-11.9941735515014,-12.03));
#430=CARTESIAN_POINT('',(2.6249999999999,-11.9941735515014,-12.03));
#431=CARTESIAN_POINT('',(12.525,-11.9941735515014,-0.0300000000000002));
#432=CARTESIAN_POINT('',(6.,-19.4396,-0.0300000000000002));
#433=CARTESIAN_POINT('',(6.,-19.4396,-12.03));
#434=CARTESIAN_POINT('',(6.,-19.4396,-12.03));
#435=CARTESIAN_POINT('',(12.525,-11.9941735515014,-12.03));
#436=CARTESIAN_POINT('',(12.525,-11.9941735515014,-12.03));
#437=CARTESIAN_POINT('',(6.,-81.3941735515014,-0.0300000000000002));
#438=CARTESIAN_POINT('',(6.,-81.3941735515014,-0.0300000000000002));
#439=CARTESIAN_POINT('',(6.,-81.3941735515014,-12.03));
#440=CARTESIAN_POINT('',(6.,-81.3941735515014,-12.03));
#441=CARTESIAN_POINT('',(6.,-81.3941735515014,-12.03));
#442=CARTESIAN_POINT('',(6.,-81.3941735515014,-12.03));
#443=CARTESIAN_POINT('',(-6.00000000000004,-81.3941735515014,-0.0300000000000002));
#444=CARTESIAN_POINT('',(-6.00000000000004,-81.3941735515014,-0.0300000000000002));
#445=CARTESIAN_POINT('',(-6.00000000000004,-81.3941735515014,-12.03));
#446=CARTESIAN_POINT('',(-6.00000000000004,-81.3941735515014,-12.03));
#447=CARTESIAN_POINT('',(-6.00000000000004,-81.3941735515014,-12.03));
#448=CARTESIAN_POINT('',(-6.00000000000004,-81.3941735515014,-12.03));
#449=CARTESIAN_POINT('',(-6.,-19.4396,-0.0300000000000002));
#450=CARTESIAN_POINT('',(-6.,-19.4396,-12.03));
#451=CARTESIAN_POINT('',(-6.,-19.4396,-12.03));
#452=CARTESIAN_POINT('',(-12.5249999999998,-11.9941735515014,-12.03));
#453=CARTESIAN_POINT('',(-12.5249999999998,-11.9941735515014,-0.0300000000000002));
#454=MECHANICAL_DESIGN_GEOMETRIC_PRESENTATION_REPRESENTATION('',(#70,#71),
#455);
#455=(
GEOMETRIC_REPRESENTATION_CONTEXT(3)
GLOBAL_UNCERTAINTY_ASSIGNED_CONTEXT((#456))
GLOBAL_UNIT_ASSIGNED_CONTEXT((#462,#458,#457))
REPRESENTATION_CONTEXT('SRDCN1212F06_SIM','TOP_LEVEL_ASSEMBLY_PART')
);
#456=UNCERTAINTY_MEASURE_WITH_UNIT(LENGTH_MEASURE(2.E-5),#462,
'DISTANCE_ACCURACY_VALUE','Maximum Tolerance applied to model');
#457=(
NAMED_UNIT(*)
SI_UNIT($,.STERADIAN.)
SOLID_ANGLE_UNIT()
);
#458=(
CONVERSION_BASED_UNIT('DEGREE',#460)
NAMED_UNIT(#459)
PLANE_ANGLE_UNIT()
);
#459=DIMENSIONAL_EXPONENTS(0.,0.,0.,0.,0.,0.,0.);
#460=PLANE_ANGLE_MEASURE_WITH_UNIT(PLANE_ANGLE_MEASURE(0.0174532925),#461);
#461=(
NAMED_UNIT(*)
PLANE_ANGLE_UNIT()
SI_UNIT($,.RADIAN.)
);
#462=(
LENGTH_UNIT()
NAMED_UNIT(*)
SI_UNIT(.MILLI.,.METRE.)
);
ENDSEC;
END-ISO-10303-21;
