ISO-10303-21;
HEADER;
/* Generated by software containing ST-Developer
 * from STEP Tools, Inc. (www.steptools.com) 
 */
/* OPTION: using custom schema-name function */

FILE_DESCRIPTION(
/* description */ (''),
/* implementation_level */ '2;1');

FILE_NAME(
/* name */ 'SCBCR1212F09_SIM.stp',
/* time_stamp */ '2023-09-14T13:23:09+02:00',
/* author */ (''),
/* organization */ (''),
/* preprocessor_version */ 'ST-DEVELOPER v18.102',
/* originating_system */ 'SIEMENS PLM Software NX 2027',
/* authorisation */ '');

FILE_SCHEMA (('AUTOMOTIVE_DESIGN { 1 0 10303 214 3 1 1 1 }'));
ENDSEC;

DATA;
#10=SHAPE_REPRESENTATION_RELATIONSHIP('None',
'relationship between model1-None and model1-None',#22,#11);
#11=ADVANCED_BREP_SHAPE_REPRESENTATION('model1-None',(#40,#41),#625);
#12=SHAPE_DEFINITION_REPRESENTATION(#13,#22);
#13=PRODUCT_DEFINITION_SHAPE('','',#14);
#14=PRODUCT_DEFINITION(' ','',#16,#15);
#15=PRODUCT_DEFINITION_CONTEXT('part definition',#21,'design');
#16=PRODUCT_DEFINITION_FORMATION_WITH_SPECIFIED_SOURCE(' ',' ',#18,
 .NOT_KNOWN.);
#17=PRODUCT_RELATED_PRODUCT_CATEGORY('part','',(#18));
#18=PRODUCT('model1','model1',' ',(#19));
#19=PRODUCT_CONTEXT(' ',#21,'mechanical');
#20=APPLICATION_PROTOCOL_DEFINITION('international standard',
'automotive_design',2010,#21);
#21=APPLICATION_CONTEXT(
'core data for automotive mechanical design processes');
#22=SHAPE_REPRESENTATION('model1-None',(#388),#625);
#23=PRESENTATION_LAYER_ASSIGNMENT('1','Layer 1',(#40,#41));
#24=STYLED_ITEM('',(#26),#40);
#25=STYLED_ITEM('',(#27),#41);
#26=PRESENTATION_STYLE_ASSIGNMENT((#28));
#27=PRESENTATION_STYLE_ASSIGNMENT((#29));
#28=SURFACE_STYLE_USAGE(.BOTH.,#30);
#29=SURFACE_STYLE_USAGE(.BOTH.,#31);
#30=SURFACE_SIDE_STYLE('',(#32));
#31=SURFACE_SIDE_STYLE('',(#33));
#32=SURFACE_STYLE_FILL_AREA(#34);
#33=SURFACE_STYLE_FILL_AREA(#35);
#34=FILL_AREA_STYLE('',(#36));
#35=FILL_AREA_STYLE('',(#37));
#36=FILL_AREA_STYLE_COLOUR('',#38);
#37=FILL_AREA_STYLE_COLOUR('',#39);
#38=COLOUR_RGB('light gray',0.8,0.8,0.8);
#39=COLOUR_RGB('medium gray',0.490196078431373,0.490196078431373,0.490196078431373);
#40=MANIFOLD_SOLID_BREP('',#42);
#41=MANIFOLD_SOLID_BREP('',#43);
#42=CLOSED_SHELL('',(#71,#72,#73,#74,#75,#76,#77,#78,#79,#80,#81,#82,#83));
#43=CLOSED_SHELL('',(#84,#85,#86,#87,#88,#89,#90,#91));
#44=TOROIDAL_SURFACE('',#413,4.2,2.);
#45=CYLINDRICAL_SURFACE('',#410,2.2);
#46=CYLINDRICAL_SURFACE('',#412,3.);
#47=FACE_BOUND('',#120,.T.);
#48=FACE_BOUND('',#121,.T.);
#49=FACE_BOUND('',#122,.T.);
#50=FACE_BOUND('',#123,.T.);
#51=FACE_BOUND('',#124,.T.);
#52=FACE_BOUND('',#125,.T.);
#53=FACE_BOUND('',#126,.T.);
#54=FACE_BOUND('',#127,.T.);
#55=FACE_BOUND('',#128,.T.);
#56=FACE_BOUND('',#129,.T.);
#57=PLANE('',#392);
#58=PLANE('',#396);
#59=PLANE('',#400);
#60=PLANE('',#404);
#61=PLANE('',#406);
#62=PLANE('',#408);
#63=PLANE('',#414);
#64=PLANE('',#415);
#65=PLANE('',#416);
#66=PLANE('',#417);
#67=PLANE('',#418);
#68=PLANE('',#419);
#69=PLANE('',#420);
#70=PLANE('',#421);
#71=ADVANCED_FACE('',(#96),#92,.T.);
#72=ADVANCED_FACE('',(#97),#57,.T.);
#73=ADVANCED_FACE('',(#98),#93,.T.);
#74=ADVANCED_FACE('',(#99),#58,.T.);
#75=ADVANCED_FACE('',(#100),#94,.T.);
#76=ADVANCED_FACE('',(#101),#59,.T.);
#77=ADVANCED_FACE('',(#102),#95,.T.);
#78=ADVANCED_FACE('',(#103),#60,.T.);
#79=ADVANCED_FACE('',(#47,#48),#61,.F.);
#80=ADVANCED_FACE('',(#49,#50),#62,.T.);
#81=ADVANCED_FACE('',(#51,#52),#45,.F.);
#82=ADVANCED_FACE('',(#53,#54),#46,.F.);
#83=ADVANCED_FACE('',(#55,#56),#44,.T.);
#84=ADVANCED_FACE('',(#104),#63,.F.);
#85=ADVANCED_FACE('',(#105),#64,.F.);
#86=ADVANCED_FACE('',(#106),#65,.F.);
#87=ADVANCED_FACE('',(#107),#66,.F.);
#88=ADVANCED_FACE('',(#108),#67,.F.);
#89=ADVANCED_FACE('',(#109),#68,.F.);
#90=ADVANCED_FACE('',(#110),#69,.T.);
#91=ADVANCED_FACE('',(#111),#70,.F.);
#92=CONICAL_SURFACE('',#391,0.8,7.);
#93=CONICAL_SURFACE('',#395,0.8,7.);
#94=CONICAL_SURFACE('',#399,0.8,7.);
#95=CONICAL_SURFACE('',#403,0.8,7.);
#96=FACE_OUTER_BOUND('',#112,.T.);
#97=FACE_OUTER_BOUND('',#113,.T.);
#98=FACE_OUTER_BOUND('',#114,.T.);
#99=FACE_OUTER_BOUND('',#115,.T.);
#100=FACE_OUTER_BOUND('',#116,.T.);
#101=FACE_OUTER_BOUND('',#117,.T.);
#102=FACE_OUTER_BOUND('',#118,.T.);
#103=FACE_OUTER_BOUND('',#119,.T.);
#104=FACE_OUTER_BOUND('',#130,.T.);
#105=FACE_OUTER_BOUND('',#131,.T.);
#106=FACE_OUTER_BOUND('',#132,.T.);
#107=FACE_OUTER_BOUND('',#133,.T.);
#108=FACE_OUTER_BOUND('',#134,.T.);
#109=FACE_OUTER_BOUND('',#135,.T.);
#110=FACE_OUTER_BOUND('',#136,.T.);
#111=FACE_OUTER_BOUND('',#137,.T.);
#112=EDGE_LOOP('',(#206,#207,#208,#209));
#113=EDGE_LOOP('',(#210,#211,#212,#213));
#114=EDGE_LOOP('',(#214,#215,#216,#217));
#115=EDGE_LOOP('',(#218,#219,#220,#221));
#116=EDGE_LOOP('',(#222,#223,#224,#225));
#117=EDGE_LOOP('',(#226,#227,#228,#229));
#118=EDGE_LOOP('',(#230,#231,#232,#233));
#119=EDGE_LOOP('',(#234,#235,#236,#237));
#120=EDGE_LOOP('',(#238));
#121=EDGE_LOOP('',(#239,#240,#241,#242,#243,#244,#245,#246));
#122=EDGE_LOOP('',(#247));
#123=EDGE_LOOP('',(#248,#249,#250,#251,#252,#253,#254,#255));
#124=EDGE_LOOP('',(#256));
#125=EDGE_LOOP('',(#257));
#126=EDGE_LOOP('',(#258));
#127=EDGE_LOOP('',(#259));
#128=EDGE_LOOP('',(#260));
#129=EDGE_LOOP('',(#261));
#130=EDGE_LOOP('',(#262,#263,#264,#265));
#131=EDGE_LOOP('',(#266,#267,#268,#269));
#132=EDGE_LOOP('',(#270,#271,#272,#273));
#133=EDGE_LOOP('',(#274,#275,#276,#277));
#134=EDGE_LOOP('',(#278,#279,#280,#281));
#135=EDGE_LOOP('',(#282,#283,#284,#285,#286,#287));
#136=EDGE_LOOP('',(#288,#289,#290,#291,#292,#293));
#137=EDGE_LOOP('',(#294,#295,#296,#297));
#138=LINE('',#528,#172);
#139=LINE('',#532,#173);
#140=LINE('',#534,#174);
#141=LINE('',#536,#175);
#142=LINE('',#538,#176);
#143=LINE('',#544,#177);
#144=LINE('',#546,#178);
#145=LINE('',#548,#179);
#146=LINE('',#550,#180);
#147=LINE('',#556,#181);
#148=LINE('',#558,#182);
#149=LINE('',#560,#183);
#150=LINE('',#562,#184);
#151=LINE('',#568,#185);
#152=LINE('',#570,#186);
#153=LINE('',#571,#187);
#154=LINE('',#586,#188);
#155=LINE('',#589,#189);
#156=LINE('',#591,#190);
#157=LINE('',#593,#191);
#158=LINE('',#595,#192);
#159=LINE('',#598,#193);
#160=LINE('',#600,#194);
#161=LINE('',#602,#195);
#162=LINE('',#604,#196);
#163=LINE('',#606,#197);
#164=LINE('',#608,#198);
#165=LINE('',#610,#199);
#166=LINE('',#612,#200);
#167=LINE('',#614,#201);
#168=LINE('',#616,#202);
#169=LINE('',#617,#203);
#170=LINE('',#619,#204);
#171=LINE('',#621,#205);
#172=VECTOR('',#426,1.);
#173=VECTOR('',#429,1.);
#174=VECTOR('',#432,1.);
#175=VECTOR('',#433,1.);
#176=VECTOR('',#434,1.);
#177=VECTOR('',#441,1.);
#178=VECTOR('',#444,1.);
#179=VECTOR('',#445,1.);
#180=VECTOR('',#446,1.);
#181=VECTOR('',#453,1.);
#182=VECTOR('',#456,1.);
#183=VECTOR('',#457,1.);
#184=VECTOR('',#458,1.);
#185=VECTOR('',#465,1.);
#186=VECTOR('',#468,1.);
#187=VECTOR('',#469,1.);
#188=VECTOR('',#490,1.);
#189=VECTOR('',#491,1.);
#190=VECTOR('',#492,1.);
#191=VECTOR('',#493,1.);
#192=VECTOR('',#496,1.);
#193=VECTOR('',#497,1.);
#194=VECTOR('',#498,1.);
#195=VECTOR('',#499,1.);
#196=VECTOR('',#502,1.);
#197=VECTOR('',#503,1.);
#198=VECTOR('',#504,1.);
#199=VECTOR('',#507,1.);
#200=VECTOR('',#508,1.);
#201=VECTOR('',#509,1.);
#202=VECTOR('',#512,1.);
#203=VECTOR('',#513,1.);
#204=VECTOR('',#516,1.);
#205=VECTOR('',#519,1.);
#206=ORIENTED_EDGE('',*,*,#330,.F.);
#207=ORIENTED_EDGE('',*,*,#331,.F.);
#208=ORIENTED_EDGE('',*,*,#332,.T.);
#209=ORIENTED_EDGE('',*,*,#333,.T.);
#210=ORIENTED_EDGE('',*,*,#334,.F.);
#211=ORIENTED_EDGE('',*,*,#333,.F.);
#212=ORIENTED_EDGE('',*,*,#335,.T.);
#213=ORIENTED_EDGE('',*,*,#336,.T.);
#214=ORIENTED_EDGE('',*,*,#337,.F.);
#215=ORIENTED_EDGE('',*,*,#336,.F.);
#216=ORIENTED_EDGE('',*,*,#338,.T.);
#217=ORIENTED_EDGE('',*,*,#339,.T.);
#218=ORIENTED_EDGE('',*,*,#340,.F.);
#219=ORIENTED_EDGE('',*,*,#339,.F.);
#220=ORIENTED_EDGE('',*,*,#341,.T.);
#221=ORIENTED_EDGE('',*,*,#342,.T.);
#222=ORIENTED_EDGE('',*,*,#343,.F.);
#223=ORIENTED_EDGE('',*,*,#342,.F.);
#224=ORIENTED_EDGE('',*,*,#344,.T.);
#225=ORIENTED_EDGE('',*,*,#345,.T.);
#226=ORIENTED_EDGE('',*,*,#346,.F.);
#227=ORIENTED_EDGE('',*,*,#345,.F.);
#228=ORIENTED_EDGE('',*,*,#347,.T.);
#229=ORIENTED_EDGE('',*,*,#348,.T.);
#230=ORIENTED_EDGE('',*,*,#349,.F.);
#231=ORIENTED_EDGE('',*,*,#348,.F.);
#232=ORIENTED_EDGE('',*,*,#350,.T.);
#233=ORIENTED_EDGE('',*,*,#351,.T.);
#234=ORIENTED_EDGE('',*,*,#352,.F.);
#235=ORIENTED_EDGE('',*,*,#351,.F.);
#236=ORIENTED_EDGE('',*,*,#353,.T.);
#237=ORIENTED_EDGE('',*,*,#331,.T.);
#238=ORIENTED_EDGE('',*,*,#354,.T.);
#239=ORIENTED_EDGE('',*,*,#332,.F.);
#240=ORIENTED_EDGE('',*,*,#353,.F.);
#241=ORIENTED_EDGE('',*,*,#350,.F.);
#242=ORIENTED_EDGE('',*,*,#347,.F.);
#243=ORIENTED_EDGE('',*,*,#344,.F.);
#244=ORIENTED_EDGE('',*,*,#341,.F.);
#245=ORIENTED_EDGE('',*,*,#338,.F.);
#246=ORIENTED_EDGE('',*,*,#335,.F.);
#247=ORIENTED_EDGE('',*,*,#355,.T.);
#248=ORIENTED_EDGE('',*,*,#330,.T.);
#249=ORIENTED_EDGE('',*,*,#334,.T.);
#250=ORIENTED_EDGE('',*,*,#337,.T.);
#251=ORIENTED_EDGE('',*,*,#340,.T.);
#252=ORIENTED_EDGE('',*,*,#343,.T.);
#253=ORIENTED_EDGE('',*,*,#346,.T.);
#254=ORIENTED_EDGE('',*,*,#349,.T.);
#255=ORIENTED_EDGE('',*,*,#352,.T.);
#256=ORIENTED_EDGE('',*,*,#356,.T.);
#257=ORIENTED_EDGE('',*,*,#354,.F.);
#258=ORIENTED_EDGE('',*,*,#357,.T.);
#259=ORIENTED_EDGE('',*,*,#355,.F.);
#260=ORIENTED_EDGE('',*,*,#357,.F.);
#261=ORIENTED_EDGE('',*,*,#356,.F.);
#262=ORIENTED_EDGE('',*,*,#358,.T.);
#263=ORIENTED_EDGE('',*,*,#359,.T.);
#264=ORIENTED_EDGE('',*,*,#360,.F.);
#265=ORIENTED_EDGE('',*,*,#361,.T.);
#266=ORIENTED_EDGE('',*,*,#362,.F.);
#267=ORIENTED_EDGE('',*,*,#363,.T.);
#268=ORIENTED_EDGE('',*,*,#364,.T.);
#269=ORIENTED_EDGE('',*,*,#365,.F.);
#270=ORIENTED_EDGE('',*,*,#366,.T.);
#271=ORIENTED_EDGE('',*,*,#367,.F.);
#272=ORIENTED_EDGE('',*,*,#368,.F.);
#273=ORIENTED_EDGE('',*,*,#365,.T.);
#274=ORIENTED_EDGE('',*,*,#369,.T.);
#275=ORIENTED_EDGE('',*,*,#370,.F.);
#276=ORIENTED_EDGE('',*,*,#371,.F.);
#277=ORIENTED_EDGE('',*,*,#367,.T.);
#278=ORIENTED_EDGE('',*,*,#372,.T.);
#279=ORIENTED_EDGE('',*,*,#361,.F.);
#280=ORIENTED_EDGE('',*,*,#373,.F.);
#281=ORIENTED_EDGE('',*,*,#370,.T.);
#282=ORIENTED_EDGE('',*,*,#360,.T.);
#283=ORIENTED_EDGE('',*,*,#374,.T.);
#284=ORIENTED_EDGE('',*,*,#362,.T.);
#285=ORIENTED_EDGE('',*,*,#368,.T.);
#286=ORIENTED_EDGE('',*,*,#371,.T.);
#287=ORIENTED_EDGE('',*,*,#373,.T.);
#288=ORIENTED_EDGE('',*,*,#364,.F.);
#289=ORIENTED_EDGE('',*,*,#375,.T.);
#290=ORIENTED_EDGE('',*,*,#358,.F.);
#291=ORIENTED_EDGE('',*,*,#372,.F.);
#292=ORIENTED_EDGE('',*,*,#369,.F.);
#293=ORIENTED_EDGE('',*,*,#366,.F.);
#294=ORIENTED_EDGE('',*,*,#374,.F.);
#295=ORIENTED_EDGE('',*,*,#359,.F.);
#296=ORIENTED_EDGE('',*,*,#375,.F.);
#297=ORIENTED_EDGE('',*,*,#363,.F.);
#298=VERTEX_POINT('',#526);
#299=VERTEX_POINT('',#527);
#300=VERTEX_POINT('',#529);
#301=VERTEX_POINT('',#531);
#302=VERTEX_POINT('',#535);
#303=VERTEX_POINT('',#537);
#304=VERTEX_POINT('',#541);
#305=VERTEX_POINT('',#543);
#306=VERTEX_POINT('',#547);
#307=VERTEX_POINT('',#549);
#308=VERTEX_POINT('',#553);
#309=VERTEX_POINT('',#555);
#310=VERTEX_POINT('',#559);
#311=VERTEX_POINT('',#561);
#312=VERTEX_POINT('',#565);
#313=VERTEX_POINT('',#567);
#314=VERTEX_POINT('',#574);
#315=VERTEX_POINT('',#577);
#316=VERTEX_POINT('',#580);
#317=VERTEX_POINT('',#583);
#318=VERTEX_POINT('',#587);
#319=VERTEX_POINT('',#588);
#320=VERTEX_POINT('',#590);
#321=VERTEX_POINT('',#592);
#322=VERTEX_POINT('',#596);
#323=VERTEX_POINT('',#597);
#324=VERTEX_POINT('',#599);
#325=VERTEX_POINT('',#601);
#326=VERTEX_POINT('',#605);
#327=VERTEX_POINT('',#607);
#328=VERTEX_POINT('',#611);
#329=VERTEX_POINT('',#613);
#330=EDGE_CURVE('',#298,#299,#376,.T.);
#331=EDGE_CURVE('',#300,#298,#138,.T.);
#332=EDGE_CURVE('',#300,#301,#377,.T.);
#333=EDGE_CURVE('',#301,#299,#139,.T.);
#334=EDGE_CURVE('',#299,#302,#140,.T.);
#335=EDGE_CURVE('',#301,#303,#141,.T.);
#336=EDGE_CURVE('',#303,#302,#142,.T.);
#337=EDGE_CURVE('',#302,#304,#378,.T.);
#338=EDGE_CURVE('',#303,#305,#379,.T.);
#339=EDGE_CURVE('',#305,#304,#143,.T.);
#340=EDGE_CURVE('',#304,#306,#144,.T.);
#341=EDGE_CURVE('',#305,#307,#145,.T.);
#342=EDGE_CURVE('',#307,#306,#146,.T.);
#343=EDGE_CURVE('',#306,#308,#380,.T.);
#344=EDGE_CURVE('',#307,#309,#381,.T.);
#345=EDGE_CURVE('',#309,#308,#147,.T.);
#346=EDGE_CURVE('',#308,#310,#148,.T.);
#347=EDGE_CURVE('',#309,#311,#149,.T.);
#348=EDGE_CURVE('',#311,#310,#150,.T.);
#349=EDGE_CURVE('',#310,#312,#382,.T.);
#350=EDGE_CURVE('',#311,#313,#383,.T.);
#351=EDGE_CURVE('',#313,#312,#151,.T.);
#352=EDGE_CURVE('',#312,#298,#152,.T.);
#353=EDGE_CURVE('',#313,#300,#153,.T.);
#354=EDGE_CURVE('',#314,#314,#384,.T.);
#355=EDGE_CURVE('',#315,#315,#385,.T.);
#356=EDGE_CURVE('',#316,#316,#386,.T.);
#357=EDGE_CURVE('',#317,#317,#387,.T.);
#358=EDGE_CURVE('',#318,#319,#154,.T.);
#359=EDGE_CURVE('',#319,#320,#155,.T.);
#360=EDGE_CURVE('',#321,#320,#156,.T.);
#361=EDGE_CURVE('',#321,#318,#157,.T.);
#362=EDGE_CURVE('',#322,#323,#158,.T.);
#363=EDGE_CURVE('',#322,#324,#159,.T.);
#364=EDGE_CURVE('',#324,#325,#160,.T.);
#365=EDGE_CURVE('',#323,#325,#161,.T.);
#366=EDGE_CURVE('',#325,#326,#162,.T.);
#367=EDGE_CURVE('',#327,#326,#163,.T.);
#368=EDGE_CURVE('',#323,#327,#164,.T.);
#369=EDGE_CURVE('',#326,#328,#165,.T.);
#370=EDGE_CURVE('',#329,#328,#166,.T.);
#371=EDGE_CURVE('',#327,#329,#167,.T.);
#372=EDGE_CURVE('',#328,#318,#168,.T.);
#373=EDGE_CURVE('',#329,#321,#169,.T.);
#374=EDGE_CURVE('',#320,#322,#170,.T.);
#375=EDGE_CURVE('',#324,#319,#171,.T.);
#376=CIRCLE('',#389,0.8);
#377=CIRCLE('',#390,0.312545293215469);
#378=CIRCLE('',#393,0.8);
#379=CIRCLE('',#394,0.312545293215474);
#380=CIRCLE('',#397,0.8);
#381=CIRCLE('',#398,0.312545293215468);
#382=CIRCLE('',#401,0.8);
#383=CIRCLE('',#402,0.312545293215474);
#384=CIRCLE('',#405,2.2);
#385=CIRCLE('',#407,3.);
#386=CIRCLE('',#409,2.2);
#387=CIRCLE('',#411,3.);
#388=AXIS2_PLACEMENT_3D('',#524,#422,#423);
#389=AXIS2_PLACEMENT_3D('',#525,#424,#425);
#390=AXIS2_PLACEMENT_3D('',#530,#427,#428);
#391=AXIS2_PLACEMENT_3D('',#533,#430,#431);
#392=AXIS2_PLACEMENT_3D('',#539,#435,#436);
#393=AXIS2_PLACEMENT_3D('',#540,#437,#438);
#394=AXIS2_PLACEMENT_3D('',#542,#439,#440);
#395=AXIS2_PLACEMENT_3D('',#545,#442,#443);
#396=AXIS2_PLACEMENT_3D('',#551,#447,#448);
#397=AXIS2_PLACEMENT_3D('',#552,#449,#450);
#398=AXIS2_PLACEMENT_3D('',#554,#451,#452);
#399=AXIS2_PLACEMENT_3D('',#557,#454,#455);
#400=AXIS2_PLACEMENT_3D('',#563,#459,#460);
#401=AXIS2_PLACEMENT_3D('',#564,#461,#462);
#402=AXIS2_PLACEMENT_3D('',#566,#463,#464);
#403=AXIS2_PLACEMENT_3D('',#569,#466,#467);
#404=AXIS2_PLACEMENT_3D('',#572,#470,#471);
#405=AXIS2_PLACEMENT_3D('',#573,#472,#473);
#406=AXIS2_PLACEMENT_3D('',#575,#474,#475);
#407=AXIS2_PLACEMENT_3D('',#576,#476,#477);
#408=AXIS2_PLACEMENT_3D('',#578,#478,#479);
#409=AXIS2_PLACEMENT_3D('',#579,#480,#481);
#410=AXIS2_PLACEMENT_3D('',#581,#482,#483);
#411=AXIS2_PLACEMENT_3D('',#582,#484,#485);
#412=AXIS2_PLACEMENT_3D('',#584,#486,#487);
#413=AXIS2_PLACEMENT_3D('',#585,#488,#489);
#414=AXIS2_PLACEMENT_3D('',#594,#494,#495);
#415=AXIS2_PLACEMENT_3D('',#603,#500,#501);
#416=AXIS2_PLACEMENT_3D('',#609,#505,#506);
#417=AXIS2_PLACEMENT_3D('',#615,#510,#511);
#418=AXIS2_PLACEMENT_3D('',#618,#514,#515);
#419=AXIS2_PLACEMENT_3D('',#620,#517,#518);
#420=AXIS2_PLACEMENT_3D('',#622,#520,#521);
#421=AXIS2_PLACEMENT_3D('',#623,#522,#523);
#422=DIRECTION('',(0.,0.,1.));
#423=DIRECTION('',(1.,0.,0.));
#424=DIRECTION('',(0.,0.,1.));
#425=DIRECTION('',(0.0871557427475737,0.996194698091753,0.));
#426=DIRECTION('',(-0.0315421070873914,-0.117716746227923,0.992546151641322));
#427=DIRECTION('',(0.,0.,1.));
#428=DIRECTION('',(0.0871557427475775,0.996194698091753,0.));
#429=DIRECTION('',(0.12140559376013,-0.010621613142645,0.992546151641322));
#430=DIRECTION('',(0.,0.,1.));
#431=DIRECTION('',(0.0871557427475748,0.996194698091753,0.));
#432=DIRECTION('',(0.0871557427476579,0.996194698091746,0.));
#433=DIRECTION('',(0.0871557427476579,0.996194698091746,0.));
#434=DIRECTION('',(0.12140559376013,-0.010621613142645,0.992546151641322));
#435=DIRECTION('',(0.988769213876451,-0.086506097057629,-0.121869343405147));
#436=DIRECTION('',(-0.121405593760131,0.0106216131426349,-0.992546151641322));
#437=DIRECTION('',(0.,0.,1.));
#438=DIRECTION('',(0.0871557427475737,0.996194698091753,0.));
#439=DIRECTION('',(0.,0.,1.));
#440=DIRECTION('',(0.0871557427475762,0.996194698091754,0.));
#441=DIRECTION('',(0.0315421070873914,0.117716746227923,0.992546151641322));
#442=DIRECTION('',(0.,0.,1.));
#443=DIRECTION('',(0.0871557427475748,0.996194698091753,0.));
#444=DIRECTION('',(-0.965925826289068,0.258819045102521,0.));
#445=DIRECTION('',(-0.965925826289068,0.258819045102521,0.));
#446=DIRECTION('',(0.0315421070873914,0.117716746227923,0.992546151641322));
#447=DIRECTION('',(0.256889847187989,0.958725961654179,-0.121869343405147));
#448=DIRECTION('',(-0.965925826289068,0.258819045102521,0.));
#449=DIRECTION('',(0.,0.,1.));
#450=DIRECTION('',(0.0871557427475748,0.996194698091753,0.));
#451=DIRECTION('',(0.,0.,1.));
#452=DIRECTION('',(0.0871557427475748,0.996194698091754,0.));
#453=DIRECTION('',(-0.12140559376013,0.010621613142645,0.992546151641322));
#454=DIRECTION('',(0.,0.,1.));
#455=DIRECTION('',(0.0871557427475748,0.996194698091753,0.));
#456=DIRECTION('',(-0.0871557427476579,-0.996194698091746,0.));
#457=DIRECTION('',(-0.0871557427476579,-0.996194698091746,0.));
#458=DIRECTION('',(-0.12140559376013,0.010621613142645,0.992546151641322));
#459=DIRECTION('',(-0.988769213876451,0.086506097057629,-0.121869343405147));
#460=DIRECTION('',(-0.121405593760131,0.0106216131426349,0.992546151641322));
#461=DIRECTION('',(0.,0.,1.));
#462=DIRECTION('',(0.0871557427475748,0.996194698091753,0.));
#463=DIRECTION('',(0.,0.,1.));
#464=DIRECTION('',(0.0871557427475748,0.996194698091753,0.));
#465=DIRECTION('',(-0.0315421070873914,-0.117716746227923,0.992546151641322));
#466=DIRECTION('',(0.,0.,1.));
#467=DIRECTION('',(0.0871557427475748,0.996194698091753,0.));
#468=DIRECTION('',(0.965925826289068,-0.258819045102521,0.));
#469=DIRECTION('',(0.965925826289068,-0.258819045102521,0.));
#470=DIRECTION('',(-0.256889847187989,-0.958725961654179,-0.121869343405147));
#471=DIRECTION('',(0.965925826289068,-0.258819045102521,0.));
#472=DIRECTION('',(0.,0.,1.));
#473=DIRECTION('',(0.0871557427475749,0.996194698091753,0.));
#474=DIRECTION('',(0.,0.,1.));
#475=DIRECTION('',(0.0871557427475748,0.996194698091753,0.));
#476=DIRECTION('',(0.,0.,-1.));
#477=DIRECTION('',(-0.0871557427475749,-0.996194698091753,0.));
#478=DIRECTION('',(0.,0.,1.));
#479=DIRECTION('',(0.0871557427475748,0.996194698091753,0.));
#480=DIRECTION('',(0.,0.,1.));
#481=DIRECTION('',(0.0871557427475749,0.996194698091753,0.));
#482=DIRECTION('',(0.,0.,1.));
#483=DIRECTION('',(0.0871557427475749,0.996194698091753,0.));
#484=DIRECTION('',(0.,0.,-1.));
#485=DIRECTION('',(-0.0871557427475749,-0.996194698091753,0.));
#486=DIRECTION('',(0.,0.,-1.));
#487=DIRECTION('',(-0.0871557427475749,-0.996194698091753,0.));
#488=DIRECTION('',(0.,0.,1.));
#489=DIRECTION('',(0.0871557427475749,0.996194698091753,0.));
#490=DIRECTION('',(-0.0871557427476584,-0.996194698091746,0.));
#491=DIRECTION('',(0.,0.,1.));
#492=DIRECTION('',(-0.0871557427476584,-0.996194698091746,0.));
#493=DIRECTION('',(0.,0.,-1.));
#494=DIRECTION('',(0.996194698091746,-0.0871557427476584,0.));
#495=DIRECTION('',(0.0871557427476584,0.996194698091746,0.));
#496=DIRECTION('',(0.965925826289068,-0.258819045102521,0.));
#497=DIRECTION('',(0.,0.,-1.));
#498=DIRECTION('',(0.965925826289068,-0.258819045102521,0.));
#499=DIRECTION('',(0.,0.,-1.));
#500=DIRECTION('',(0.258819045102521,0.965925826289068,0.));
#501=DIRECTION('',(-0.965925826289069,0.258819045102521,0.));
#502=DIRECTION('',(1.,1.22812824955752E-16,0.));
#503=DIRECTION('',(0.,0.,-1.));
#504=DIRECTION('',(1.,1.22812824955752E-16,0.));
#505=DIRECTION('',(-1.22812824955752E-16,1.,0.));
#506=DIRECTION('',(-1.,-1.22840106142608E-16,0.));
#507=DIRECTION('',(0.,1.,0.));
#508=DIRECTION('',(0.,0.,-1.));
#509=DIRECTION('',(0.,1.,0.));
#510=DIRECTION('',(-1.,0.,0.));
#511=DIRECTION('',(0.,0.,1.));
#512=DIRECTION('',(-1.,0.,0.));
#513=DIRECTION('',(-1.,0.,0.));
#514=DIRECTION('',(0.,-1.,0.));
#515=DIRECTION('',(0.,0.,1.));
#516=DIRECTION('',(0.573576436351046,-0.819152044288992,0.));
#517=DIRECTION('',(0.,0.,-1.));
#518=DIRECTION('',(0.,-1.,0.));
#519=DIRECTION('',(-0.573576436351046,0.819152044288992,0.));
#520=DIRECTION('',(0.,0.,-1.));
#521=DIRECTION('',(0.,-1.,0.));
#522=DIRECTION('',(0.819152044288992,0.573576436351046,0.));
#523=DIRECTION('',(-0.573576436351046,0.819152044288992,0.));
#524=CARTESIAN_POINT('',(0.,0.,0.));
#525=CARTESIAN_POINT('',(8.62851394353804,-1.4837823987236,0.));
#526=CARTESIAN_POINT('',(8.42145870745602,-2.25652305975486,0.));
#527=CARTESIAN_POINT('',(9.42546970201143,-1.55350699292173,0.));
#528=CARTESIAN_POINT('',(8.4245339201603,-2.24504620969839,-0.0967687582398794));
#529=CARTESIAN_POINT('',(8.54762126919672,-1.78567796932552,-3.97));
#530=CARTESIAN_POINT('',(8.62851394353804,-1.4837823987236,-3.97));
#531=CARTESIAN_POINT('',(8.93986990755282,-1.51102251589608,-3.97));
#532=CARTESIAN_POINT('',(9.41363320601362,-1.55247143370605,-0.0967687582398794));
#533=CARTESIAN_POINT('',(8.62851394353804,-1.4837823987236,0.));
#534=CARTESIAN_POINT('',(9.42546970201143,-1.55350699292173,0.));
#535=CARTESIAN_POINT('',(10.1268342669862,6.46312666804338,0.));
#536=CARTESIAN_POINT('',(8.93986990755282,-1.51102251589608,-3.97));
#537=CARTESIAN_POINT('',(9.64123447252759,6.50561114506902,-3.97));
#538=CARTESIAN_POINT('',(10.1149977709884,6.46416222725905,-0.0967687582398794));
#539=CARTESIAN_POINT('',(9.42546970201143,-1.55350699292173,0.));
#540=CARTESIAN_POINT('',(9.3298785085128,6.5328512622415,0.));
#541=CARTESIAN_POINT('',(9.53693374459482,7.30559192327276,0.));
#542=CARTESIAN_POINT('',(9.3298785085128,6.5328512622415,-3.97));
#543=CARTESIAN_POINT('',(9.41077118285412,6.83474683284342,-3.97));
#544=CARTESIAN_POINT('',(9.53385853189053,7.29411507321629,-0.0967687582398794));
#545=CARTESIAN_POINT('',(9.3298785085128,6.5328512622415,0.));
#546=CARTESIAN_POINT('',(10.8867101120575,6.94392043564852,0.));
#547=CARTESIAN_POINT('',(1.76388144080577,9.38837501079791,0.));
#548=CARTESIAN_POINT('',(9.41077118285412,6.83474683284342,-3.97));
#549=CARTESIAN_POINT('',(1.63771887906506,8.91752992036856,-3.97));
#550=CARTESIAN_POINT('',(1.76080622810148,9.37689816074144,-0.0967687582398794));
#551=CARTESIAN_POINT('',(9.53693374459482,7.30559192327276,0.));
#552=CARTESIAN_POINT('',(1.55682620472375,8.61563434976666,0.));
#553=CARTESIAN_POINT('',(0.759870446250353,8.68535894396478,0.));
#554=CARTESIAN_POINT('',(1.55682620472375,8.61563434976666,-3.97));
#555=CARTESIAN_POINT('',(1.24547024070897,8.64287446693914,-3.97));
#556=CARTESIAN_POINT('',(0.771706942248162,8.68432338474911,-0.0967687582398794));
#557=CARTESIAN_POINT('',(1.55682620472375,8.61563434976666,0.));
#558=CARTESIAN_POINT('',(-0.0632847973124447,-0.723348543250287,0.));
#559=CARTESIAN_POINT('',(0.0585058812755831,0.668725282999675,0.));
#560=CARTESIAN_POINT('',(1.24547024070897,8.64287446693914,-3.97));
#561=CARTESIAN_POINT('',(0.5441056757342,0.626240805974028,-3.97));
#562=CARTESIAN_POINT('',(0.0703423772733914,0.667689723783998,-0.0967687582398794));
#563=CARTESIAN_POINT('',(0.759870446250353,8.68535894396478,0.));
#564=CARTESIAN_POINT('',(0.855461639748984,0.599000688801548,0.));
#565=CARTESIAN_POINT('',(0.648406403666966,-0.173739972229708,0.));
#566=CARTESIAN_POINT('',(0.855461639748984,0.599000688801548,-3.97));
#567=CARTESIAN_POINT('',(0.774568965407668,0.297105118199635,-3.97));
#568=CARTESIAN_POINT('',(0.651481616371251,-0.162263122173238,-0.0967687582398794));
#569=CARTESIAN_POINT('',(0.855461639748984,0.599000688801548,0.));
#570=CARTESIAN_POINT('',(8.42145870745602,-2.25652305975486,0.));
#571=CARTESIAN_POINT('',(0.774568965407669,0.297105118199635,-3.97));
#572=CARTESIAN_POINT('',(0.648406403666966,-0.173739972229708,0.));
#573=CARTESIAN_POINT('',(5.09267007413089,3.56592597552152,-3.97));
#574=CARTESIAN_POINT('',(5.28441270817556,5.75755431132338,-3.97));
#575=CARTESIAN_POINT('',(8.62851394353804,-1.4837823987236,-3.97));
#576=CARTESIAN_POINT('',(5.09267007413089,3.56592597552152,0.));
#577=CARTESIAN_POINT('',(4.83120284588817,0.577341881246265,0.));
#578=CARTESIAN_POINT('',(8.62851394353804,-1.4837823987236,0.));
#579=CARTESIAN_POINT('',(5.09267007413089,3.56592597552152,-2.4));
#580=CARTESIAN_POINT('',(5.28441270817556,5.75755431132338,-2.4));
#581=CARTESIAN_POINT('',(5.09267007413089,3.56592597552152,-3.97));
#582=CARTESIAN_POINT('',(5.09267007413089,3.56592597552152,-0.8));
#583=CARTESIAN_POINT('',(4.83120284588817,0.577341881246265,-0.8));
#584=CARTESIAN_POINT('',(5.09267007413089,3.56592597552152,0.));
#585=CARTESIAN_POINT('',(5.09267007413089,3.56592597552152,-2.4));
#586=CARTESIAN_POINT('',(1.59963415381415,11.258465498424,-12.01));
#587=CARTESIAN_POINT('',(1.59963415381415,11.258465498424,-12.01));
#588=CARTESIAN_POINT('',(0.698334459107997,0.956562847469874,-12.01));
#589=CARTESIAN_POINT('',(0.698334459107997,0.956562847469874,-0.00999999999999959));
#590=CARTESIAN_POINT('',(0.698334459107995,0.95656284746988,-0.00999999999999959));
#591=CARTESIAN_POINT('',(1.59963415381415,11.258465498424,-0.00999999999999959));
#592=CARTESIAN_POINT('',(1.59963415381415,11.258465498424,-0.00999999999999959));
#593=CARTESIAN_POINT('',(1.59963415381415,11.258465498424,-0.00999999999999959));
#594=CARTESIAN_POINT('',(1.59963415381415,11.258465498424,-0.00999999999999959));
#595=CARTESIAN_POINT('',(0.654756587734168,0.458465498424001,-0.00999999999999959));
#596=CARTESIAN_POINT('',(1.1377195008787,0.329055975872741,-0.00999999999999959));
#597=CARTESIAN_POINT('',(5.13321755681685,-0.741534501576006,-0.00999999999999959));
#598=CARTESIAN_POINT('',(1.1377195008787,0.329055975872741,-0.00999999999999959));
#599=CARTESIAN_POINT('',(1.13771950087871,0.329055975872737,-12.01));
#600=CARTESIAN_POINT('',(0.654756587734168,0.458465498424001,-12.01));
#601=CARTESIAN_POINT('',(5.13321755681685,-0.741534501576006,-12.01));
#602=CARTESIAN_POINT('',(5.13321755681685,-0.741534501576006,-0.00999999999999959));
#603=CARTESIAN_POINT('',(0.654756587734168,0.458465498424001,-0.00999999999999959));
#604=CARTESIAN_POINT('',(5.13321755681685,-0.741534501576006,-12.01));
#605=CARTESIAN_POINT('',(81.0547565877342,-0.741534501575997,-12.01));
#606=CARTESIAN_POINT('',(81.0547565877342,-0.741534501575997,-0.00999999999999959));
#607=CARTESIAN_POINT('',(81.0547565877342,-0.741534501575997,-0.00999999999999959));
#608=CARTESIAN_POINT('',(5.13321755681685,-0.741534501576006,-0.00999999999999959));
#609=CARTESIAN_POINT('',(5.13321755681685,-0.741534501576006,-0.00999999999999959));
#610=CARTESIAN_POINT('',(81.0547565877342,-0.741534501575997,-12.01));
#611=CARTESIAN_POINT('',(81.0547565877342,11.258465498424,-12.01));
#612=CARTESIAN_POINT('',(81.0547565877342,11.258465498424,-0.00999999999999959));
#613=CARTESIAN_POINT('',(81.0547565877342,11.258465498424,-0.00999999999999959));
#614=CARTESIAN_POINT('',(81.0547565877342,-0.741534501575997,-0.00999999999999959));
#615=CARTESIAN_POINT('',(81.0547565877342,-0.741534501575997,-0.00999999999999959));
#616=CARTESIAN_POINT('',(81.0547565877342,11.258465498424,-12.01));
#617=CARTESIAN_POINT('',(81.0547565877342,11.258465498424,-0.00999999999999959));
#618=CARTESIAN_POINT('',(81.0547565877342,11.258465498424,-0.00999999999999959));
#619=CARTESIAN_POINT('',(1.1377195008787,0.329055975872741,-0.00999999999999959));
#620=CARTESIAN_POINT('',(1.59963415381416,11.258465498424,-0.00999999999999959));
#621=CARTESIAN_POINT('',(-3.84545796949851,7.44577094743416,-12.01));
#622=CARTESIAN_POINT('',(1.59963415381416,11.258465498424,-12.01));
#623=CARTESIAN_POINT('',(1.1377195008787,0.329055975872741,-0.00999999999999959));
#624=MECHANICAL_DESIGN_GEOMETRIC_PRESENTATION_REPRESENTATION('',(#24,#25),
#625);
#625=(
GEOMETRIC_REPRESENTATION_CONTEXT(3)
GLOBAL_UNCERTAINTY_ASSIGNED_CONTEXT((#626))
GLOBAL_UNIT_ASSIGNED_CONTEXT((#632,#628,#627))
REPRESENTATION_CONTEXT('SCBCR1212F09_SIM','TOP_LEVEL_ASSEMBLY_PART')
);
#626=UNCERTAINTY_MEASURE_WITH_UNIT(LENGTH_MEASURE(2.E-5),#632,
'DISTANCE_ACCURACY_VALUE','Maximum Tolerance applied to model');
#627=(
NAMED_UNIT(*)
SI_UNIT($,.STERADIAN.)
SOLID_ANGLE_UNIT()
);
#628=(
CONVERSION_BASED_UNIT('DEGREE',#630)
NAMED_UNIT(#629)
PLANE_ANGLE_UNIT()
);
#629=DIMENSIONAL_EXPONENTS(0.,0.,0.,0.,0.,0.,0.);
#630=PLANE_ANGLE_MEASURE_WITH_UNIT(PLANE_ANGLE_MEASURE(0.0174532925),#631);
#631=(
NAMED_UNIT(*)
PLANE_ANGLE_UNIT()
SI_UNIT($,.RADIAN.)
);
#632=(
LENGTH_UNIT()
NAMED_UNIT(*)
SI_UNIT(.MILLI.,.METRE.)
);
ENDSEC;
END-ISO-10303-21;
