ISO-10303-21;
HEADER;
/****************************************************************
 * Generated by software with PDElib inside                     *
 * PDElib Version v7.5, created Tue 10/04/2016 12:12:03.09      *
 * International Technegroup Inc. (www.iti-global.com)          *
 ****************************************************************/
FILE_DESCRIPTION((''),'2;1');
FILE_NAME('E:\\17.0 Project Information\\2020\\12. 2D & 3D drawing for all HPMT product (dxf & stp file)\\...Customer request\\Dormer\\J93\\J93 1000 100.stp','2020-06-24T14:36:00',(''),(''),'STEP Write','Mastercam 2019 ... CNC Software, Inc.','');
FILE_SCHEMA(('AUTOMOTIVE_DESIGN'));
ENDSEC;
DATA;
#10=(NAMED_UNIT(*)PLANE_ANGLE_UNIT()SI_UNIT($,.RADIAN.));
#11=DIMENSIONAL_EXPONENTS(0.0,0.0,0.0,0.0,0.0,0.0,0.0);
#12=PLANE_ANGLE_MEASURE_WITH_UNIT(PLANE_ANGLE_MEASURE(0.017453292500000),#10);
#16=(CONVERSION_BASED_UNIT('DEGREE',#12)NAMED_UNIT(#11)PLANE_ANGLE_UNIT());
#20=(NAMED_UNIT(*)SI_UNIT($,.STERADIAN.)SOLID_ANGLE_UNIT());
#24=(LENGTH_UNIT()NAMED_UNIT(*)SI_UNIT(.MILLI.,.METRE.));
#26=UNCERTAINTY_MEASURE_WITH_UNIT(LENGTH_MEASURE(0.000050000000000),#24,'DISTANCE_ACCURACY_VALUE','');
#28=(GEOMETRIC_REPRESENTATION_CONTEXT(3)GLOBAL_UNCERTAINTY_ASSIGNED_CONTEXT((#26))GLOBAL_UNIT_ASSIGNED_CONTEXT((#16,#20,#24))REPRESENTATION_CONTEXT('','3D'));
#29=APPLICATION_CONTEXT('automotive design');
#30=APPLICATION_PROTOCOL_DEFINITION('Draft International Standard','automotive_design',1998,#29);
#31=PRODUCT_CONTEXT('None',#29,'mechanical');
#32=PRODUCT('None','None','None',(#31));
#33=PRODUCT_RELATED_PRODUCT_CATEGORY('part','description',(#32));
#34=PRODUCT_DEFINITION_FORMATION('None','None',#32);
#35=PRODUCT_DEFINITION_CONTEXT('part definition',#29,'design');
#36=PRODUCT_DEFINITION('None','None',#34,#35);
#37=PRODUCT_DEFINITION_SHAPE('None','None',#36);
#38=SHAPE_REPRESENTATION('',(),#28);
#39=SHAPE_DEFINITION_REPRESENTATION(#37,#38);
#40=CARTESIAN_POINT('',(0.0,100.0,0.0));
#41=DIRECTION('',(1.0,0.0,0.0));
#42=VECTOR('',#41,5.0);
#43=LINE('',#40,#42);
#44=CARTESIAN_POINT('',(5.0,100.0,0.0));
#45=TRIMMED_CURVE('',#43,(PARAMETER_VALUE(0.0),#40),(PARAMETER_VALUE(1.0),#44),.T.,.PARAMETER.);
#46=CARTESIAN_POINT('',(0.0,0.0,0.0));
#47=DIRECTION('',(1.0,0.0,0.0));
#48=VECTOR('',#47,4.800000000000000);
#49=LINE('',#46,#48);
#50=CARTESIAN_POINT('',(4.800000000000000,0.0,0.0));
#51=TRIMMED_CURVE('',#49,(PARAMETER_VALUE(0.0),#46),(PARAMETER_VALUE(1.0),#50),.T.,.PARAMETER.);
#52=CARTESIAN_POINT('',(5.0,0.200000000000000,0.0));
#53=DIRECTION('',(0.0,1.0,0.0));
#54=VECTOR('',#53,37.799999999999997);
#55=LINE('',#52,#54);
#56=CARTESIAN_POINT('',(5.000000000000003,38.0,0.0));
#57=TRIMMED_CURVE('',#55,(PARAMETER_VALUE(0.0),#52),(PARAMETER_VALUE(1.0),#56),.T.,.PARAMETER.);
#58=CARTESIAN_POINT('',(4.800000000000000,0.200000000000000,0.0));
#59=DIRECTION('',(0.0,0.0,1.0));
#60=DIRECTION('',(1.0,0.0,0.0));
#61=AXIS2_PLACEMENT_3D('',#58,#59,#60);
#62=CIRCLE('',#61,0.200000000000000);
#63=CARTESIAN_POINT('',(4.800000000000000,0.0,0.0));
#64=CARTESIAN_POINT('',(5.0,0.200000000000000,0.0));
#65=TRIMMED_CURVE('',#62,(PARAMETER_VALUE(270.0),#63),(PARAMETER_VALUE(360.0),#64),.T.,.PARAMETER.);
#66=CARTESIAN_POINT('',(5.0,100.0,0.0));
#67=DIRECTION('',(0.0,-1.0,0.0));
#68=VECTOR('',#67,62.0);
#69=LINE('',#66,#68);
#70=CARTESIAN_POINT('',(5.0,38.0,0.0));
#71=TRIMMED_CURVE('',#69,(PARAMETER_VALUE(0.0),#66),(PARAMETER_VALUE(1.0),#70),.T.,.PARAMETER.);
#72=CARTESIAN_POINT('',(0.0,100.0,0.0));
#73=DIRECTION('',(0.0,-1.0,0.0));
#74=VECTOR('',#73,100.0);
#75=LINE('',#72,#74);
#76=CARTESIAN_POINT('',(0.0,0.0,0.0));
#77=TRIMMED_CURVE('',#75,(PARAMETER_VALUE(0.0),#72),(PARAMETER_VALUE(1.0),#76),.T.,.PARAMETER.);
#78=CARTESIAN_POINT('',(0.0,100.0,0.0));
#79=DIRECTION('',(0.0,1.0,0.0));
#80=DIRECTION('',(0.0,0.0,1.0));
#81=AXIS2_PLACEMENT_3D('',#78,#79,#80);
#82=PLANE('',#81);
#83=CARTESIAN_POINT('',(0.0,100.0,5.0));
#84=VERTEX_POINT('',#83);
#85=CARTESIAN_POINT('',(0.0,100.0,0.0));
#86=DIRECTION('',(0.0,1.0,0.0));
#87=DIRECTION('',(0.0,0.0,1.0));
#88=AXIS2_PLACEMENT_3D('',#85,#86,#87);
#89=CIRCLE('',#88,5.0);
#90=EDGE_CURVE('',#84,#84,#89,.T.);
#91=ORIENTED_EDGE('',*,*,#90,.T.);
#92=EDGE_LOOP('',(#91));
#93=FACE_OUTER_BOUND('',#92,.T.);
#94=ADVANCED_FACE('',(#93),#82,.T.);
#95=CARTESIAN_POINT('',(0.0,100.0,0.0));
#96=DIRECTION('',(0.0,1.0,0.0));
#97=DIRECTION('',(0.0,0.0,1.0));
#98=AXIS2_PLACEMENT_3D('',#95,#96,#97);
#99=CYLINDRICAL_SURFACE('',#98,5.000000000000001);
#100=CARTESIAN_POINT('',(0.0,38.0,5.000000000000003));
#101=VERTEX_POINT('',#100);
#102=CARTESIAN_POINT('',(0.0,38.0,0.0));
#103=DIRECTION('',(0.0,1.0,0.0));
#104=DIRECTION('',(0.0,0.0,1.0));
#105=AXIS2_PLACEMENT_3D('',#102,#103,#104);
#106=CIRCLE('',#105,5.000000000000003);
#107=EDGE_CURVE('',#101,#101,#106,.T.);
#108=ORIENTED_EDGE('',*,*,#107,.T.);
#109=EDGE_LOOP('',(#108));
#110=FACE_BOUND('',#109,.T.);
#111=ORIENTED_EDGE('',*,*,#90,.F.);
#112=EDGE_LOOP('',(#111));
#113=FACE_BOUND('',#112,.T.);
#114=ADVANCED_FACE('',(#110,#113),#99,.T.);
#115=CARTESIAN_POINT('',(0.0,100.0,0.0));
#116=DIRECTION('',(0.0,1.0,0.0));
#117=DIRECTION('',(0.0,0.0,1.0));
#118=AXIS2_PLACEMENT_3D('',#115,#116,#117);
#119=CYLINDRICAL_SURFACE('',#118,5.000000000000001);
#120=ORIENTED_EDGE('',*,*,#107,.F.);
#121=EDGE_LOOP('',(#120));
#122=FACE_BOUND('',#121,.T.);
#123=CARTESIAN_POINT('',(0.0,0.200000000000006,4.999999999999999));
#124=VERTEX_POINT('',#123);
#125=CARTESIAN_POINT('',(0.0,0.200000000000006,0.0));
#126=DIRECTION('',(0.0,1.0,0.0));
#127=DIRECTION('',(0.0,0.0,1.0));
#128=AXIS2_PLACEMENT_3D('',#125,#126,#127);
#129=CIRCLE('',#128,4.999999999999999);
#130=EDGE_CURVE('',#124,#124,#129,.T.);
#131=ORIENTED_EDGE('',*,*,#130,.T.);
#132=EDGE_LOOP('',(#131));
#133=FACE_BOUND('',#132,.T.);
#134=ADVANCED_FACE('',(#122,#133),#119,.T.);
#135=CARTESIAN_POINT('',(0.0,0.200000000000000,0.0));
#136=DIRECTION('',(0.0,1.0,0.0));
#137=DIRECTION('',(0.0,0.0,1.0));
#138=AXIS2_PLACEMENT_3D('',#135,#136,#137);
#139=TOROIDAL_SURFACE('',#138,4.800000000000000,0.200000000000000);
#140=ORIENTED_EDGE('',*,*,#130,.F.);
#141=EDGE_LOOP('',(#140));
#142=FACE_BOUND('',#141,.T.);
#143=CARTESIAN_POINT('',(0.0,0.0,4.800000000000000));
#144=VERTEX_POINT('',#143);
#145=CARTESIAN_POINT('',(0.0,0.0,0.0));
#146=DIRECTION('',(0.0,1.0,0.0));
#147=DIRECTION('',(0.0,0.0,1.0));
#148=AXIS2_PLACEMENT_3D('',#145,#146,#147);
#149=CIRCLE('',#148,4.800000000000000);
#150=EDGE_CURVE('',#144,#144,#149,.T.);
#151=ORIENTED_EDGE('',*,*,#150,.T.);
#152=EDGE_LOOP('',(#151));
#153=FACE_BOUND('',#152,.T.);
#154=ADVANCED_FACE('',(#142,#153),#139,.T.);
#155=CARTESIAN_POINT('',(0.0,0.0,0.0));
#156=DIRECTION('',(0.0,1.0,0.0));
#157=DIRECTION('',(0.0,0.0,1.0));
#158=AXIS2_PLACEMENT_3D('',#155,#156,#157);
#159=PLANE('',#158);
#160=ORIENTED_EDGE('',*,*,#150,.F.);
#161=EDGE_LOOP('',(#160));
#162=FACE_OUTER_BOUND('',#161,.T.);
#163=ADVANCED_FACE('',(#162),#159,.F.);
#164=CLOSED_SHELL('',(#94,#114,#134,#154,#163));
#165=MANIFOLD_SOLID_BREP('',#164);
#166=ADVANCED_BREP_SHAPE_REPRESENTATION('',(#165),#28);
#167=SHAPE_REPRESENTATION_RELATIONSHIP('','',#166,#38);
#168=GEOMETRIC_SET('',(#45,#51,#57,#65,#71,#77));
#169=GEOMETRICALLY_BOUNDED_SURFACE_SHAPE_REPRESENTATION('',(#168),#28);
#170=SHAPE_REPRESENTATION_RELATIONSHIP('','',#169,#38);
#171=COLOUR_RGB('',0.0,0.0,0.501960784313725);
#172=DRAUGHTING_PRE_DEFINED_CURVE_FONT('continuous');
#173=CURVE_STYLE('',#172,POSITIVE_LENGTH_MEASURE(0.100000000000000),#171);
#174=PRESENTATION_STYLE_ASSIGNMENT((#173));
#175=STYLED_ITEM('',(#174),#45);
#176=STYLED_ITEM('',(#174),#51);
#177=STYLED_ITEM('',(#174),#57);
#178=STYLED_ITEM('',(#174),#65);
#179=STYLED_ITEM('',(#174),#71);
#180=STYLED_ITEM('',(#174),#77);
#181=COLOUR_RGB('',0.501960784313725,0.501960784313725,0.501960784313725);
#182=FILL_AREA_STYLE_COLOUR('',#181);
#183=FILL_AREA_STYLE('',(#182));
#184=SURFACE_STYLE_FILL_AREA(#183);
#185=SURFACE_SIDE_STYLE('',(#184));
#186=SURFACE_STYLE_USAGE(.BOTH.,#185);
#187=PRESENTATION_STYLE_ASSIGNMENT((#186));
#188=STYLED_ITEM('',(#187),#94);
#189=STYLED_ITEM('',(#187),#114);
#190=STYLED_ITEM('',(#187),#134);
#191=STYLED_ITEM('',(#187),#154);
#192=STYLED_ITEM('',(#187),#163);
#193=STYLED_ITEM('',(#187),#165);
#194=PRESENTATION_LAYER_ASSIGNMENT('0','',(#45,#51,#57,#65,#71,#77,#165));
#195=MECHANICAL_DESIGN_GEOMETRIC_PRESENTATION_REPRESENTATION('',(#175,#176,#177,#178,#179,#180,#188,#189,#190,#191,#192,#193),#28);
#196=PRESENTATION_STYLE_ASSIGNMENT((NULL_STYLE(.NULL.)));
#197=DRAUGHTING_MODEL('',(#207,#208),#28);
#198=AXIS2_PLACEMENT_3D('',#199,#200,#201);
#199=CARTESIAN_POINT('',(0.0,0.0,0.0));
#200=DIRECTION('',(0.0,0.0,1.0));
#201=DIRECTION('',(1.0,0.0,0.0));
#202=REPRESENTATION_MAP(#198,#38);
#203=AXIS2_PLACEMENT_3D('',#204,#205,#206);
#204=CARTESIAN_POINT('',(0.0,0.0,0.0));
#205=DIRECTION('',(0.0,0.0,1.0));
#206=DIRECTION('',(1.0,0.0,0.0));
#207=MAPPED_ITEM('',#202,#203);
#208=STYLED_ITEM('',(#196),#207);
ENDSEC;
END-ISO-10303-21;
