ISO-10303-21;
HEADER;
/****************************************************************
 * Generated by software with PDElib inside                     *
 * PDElib Version v7.5, created Tue 10/04/2016 12:12:03.09      *
 * International Technegroup Inc. (www.iti-global.com)          *
 ****************************************************************/
FILE_DESCRIPTION((''),'2;1');
FILE_NAME('E:\\17.0 Project Information\\2020\\12. 2D & 3D drawing for all HPMT product (dxf & stp file)\\...Customer request\\Dormer\\J90\\J90 1000 072.stp','2020-06-24T14:20:16',(''),(''),'STEP Write','Mastercam 2019 ... CNC Software, Inc.','');
FILE_SCHEMA(('AUTOMOTIVE_DESIGN'));
ENDSEC;
DATA;
#10=(NAMED_UNIT(*)PLANE_ANGLE_UNIT()SI_UNIT($,.RADIAN.));
#11=DIMENSIONAL_EXPONENTS(0.0,0.0,0.0,0.0,0.0,0.0,0.0);
#12=PLANE_ANGLE_MEASURE_WITH_UNIT(PLANE_ANGLE_MEASURE(0.017453292500000),#10);
#16=(CONVERSION_BASED_UNIT('DEGREE',#12)NAMED_UNIT(#11)PLANE_ANGLE_UNIT());
#20=(NAMED_UNIT(*)SI_UNIT($,.STERADIAN.)SOLID_ANGLE_UNIT());
#24=(LENGTH_UNIT()NAMED_UNIT(*)SI_UNIT(.MILLI.,.METRE.));
#26=UNCERTAINTY_MEASURE_WITH_UNIT(LENGTH_MEASURE(0.000050000000000),#24,'DISTANCE_ACCURACY_VALUE','');
#28=(GEOMETRIC_REPRESENTATION_CONTEXT(3)GLOBAL_UNCERTAINTY_ASSIGNED_CONTEXT((#26))GLOBAL_UNIT_ASSIGNED_CONTEXT((#16,#20,#24))REPRESENTATION_CONTEXT('','3D'));
#29=APPLICATION_CONTEXT('automotive design');
#30=APPLICATION_PROTOCOL_DEFINITION('Draft International Standard','automotive_design',1998,#29);
#31=PRODUCT_CONTEXT('None',#29,'mechanical');
#32=PRODUCT('None','None','None',(#31));
#33=PRODUCT_RELATED_PRODUCT_CATEGORY('part','description',(#32));
#34=PRODUCT_DEFINITION_FORMATION('None','None',#32);
#35=PRODUCT_DEFINITION_CONTEXT('part definition',#29,'design');
#36=PRODUCT_DEFINITION('None','None',#34,#35);
#37=PRODUCT_DEFINITION_SHAPE('None','None',#36);
#38=SHAPE_REPRESENTATION('',(),#28);
#39=SHAPE_DEFINITION_REPRESENTATION(#37,#38);
#40=CARTESIAN_POINT('',(0.0,72.0,0.0));
#41=DIRECTION('',(1.0,0.0,0.0));
#42=VECTOR('',#41,5.0);
#43=LINE('',#40,#42);
#44=CARTESIAN_POINT('',(5.0,72.0,0.0));
#45=TRIMMED_CURVE('',#43,(PARAMETER_VALUE(0.0),#40),(PARAMETER_VALUE(1.0),#44),.T.,.PARAMETER.);
#46=CARTESIAN_POINT('',(0.0,0.0,0.0));
#47=DIRECTION('',(1.0,0.0,0.0));
#48=VECTOR('',#47,4.800000000000000);
#49=LINE('',#46,#48);
#50=CARTESIAN_POINT('',(4.800000000000000,0.0,0.0));
#51=TRIMMED_CURVE('',#49,(PARAMETER_VALUE(0.0),#46),(PARAMETER_VALUE(1.0),#50),.T.,.PARAMETER.);
#52=CARTESIAN_POINT('',(5.000000000000001,0.200000000000000,0.0));
#53=DIRECTION('',(0.0,1.0,0.0));
#54=VECTOR('',#53,21.800000000000001);
#55=LINE('',#52,#54);
#56=CARTESIAN_POINT('',(5.000000000000002,22.0,0.0));
#57=TRIMMED_CURVE('',#55,(PARAMETER_VALUE(0.0),#52),(PARAMETER_VALUE(1.0),#56),.T.,.PARAMETER.);
#58=CARTESIAN_POINT('',(4.800000000000000,0.200000000000000,0.0));
#59=DIRECTION('',(0.0,0.0,1.0));
#60=DIRECTION('',(1.0,0.0,0.0));
#61=AXIS2_PLACEMENT_3D('',#58,#59,#60);
#62=CIRCLE('',#61,0.200000000000000);
#63=CARTESIAN_POINT('',(5.0,22.0,0.0));
#64=DIRECTION('',(0.0,1.0,0.0));
#65=VECTOR('',#64,50.0);
#66=LINE('',#63,#65);
#67=CARTESIAN_POINT('',(5.0,72.0,0.0));
#68=TRIMMED_CURVE('',#66,(PARAMETER_VALUE(0.0),#63),(PARAMETER_VALUE(1.0),#67),.T.,.PARAMETER.);
#69=CARTESIAN_POINT('',(0.0,72.0,0.0));
#70=DIRECTION('',(0.0,-1.0,0.0));
#71=VECTOR('',#70,72.0);
#72=LINE('',#69,#71);
#73=CARTESIAN_POINT('',(0.0,0.0,0.0));
#74=TRIMMED_CURVE('',#72,(PARAMETER_VALUE(0.0),#69),(PARAMETER_VALUE(1.0),#73),.T.,.PARAMETER.);
#75=CARTESIAN_POINT('',(0.0,72.000000000000014,0.0));
#76=DIRECTION('',(0.0,1.0,0.0));
#77=DIRECTION('',(0.0,0.0,1.0));
#78=AXIS2_PLACEMENT_3D('',#75,#76,#77);
#79=PLANE('',#78);
#80=CARTESIAN_POINT('',(0.0,72.000000000000014,5.0));
#81=VERTEX_POINT('',#80);
#82=CARTESIAN_POINT('',(0.0,72.000000000000014,0.0));
#83=DIRECTION('',(0.0,1.0,0.0));
#84=DIRECTION('',(0.0,0.0,1.0));
#85=AXIS2_PLACEMENT_3D('',#82,#83,#84);
#86=CIRCLE('',#85,5.0);
#87=EDGE_CURVE('',#81,#81,#86,.T.);
#88=ORIENTED_EDGE('',*,*,#87,.T.);
#89=EDGE_LOOP('',(#88));
#90=FACE_OUTER_BOUND('',#89,.T.);
#91=ADVANCED_FACE('',(#90),#79,.T.);
#92=CARTESIAN_POINT('',(0.0,72.000000000000014,0.0));
#93=DIRECTION('',(0.0,1.0,0.0));
#94=DIRECTION('',(0.0,0.0,1.0));
#95=AXIS2_PLACEMENT_3D('',#92,#93,#94);
#96=CYLINDRICAL_SURFACE('',#95,5.000000000000001);
#97=ORIENTED_EDGE('',*,*,#87,.F.);
#98=EDGE_LOOP('',(#97));
#99=FACE_BOUND('',#98,.T.);
#100=CARTESIAN_POINT('',(0.0,22.0,5.000000000000002));
#101=VERTEX_POINT('',#100);
#102=CARTESIAN_POINT('',(0.0,22.0,0.0));
#103=DIRECTION('',(0.0,1.0,0.0));
#104=DIRECTION('',(0.0,0.0,1.0));
#105=AXIS2_PLACEMENT_3D('',#102,#103,#104);
#106=CIRCLE('',#105,5.000000000000002);
#107=EDGE_CURVE('',#101,#101,#106,.T.);
#108=ORIENTED_EDGE('',*,*,#107,.T.);
#109=EDGE_LOOP('',(#108));
#110=FACE_BOUND('',#109,.T.);
#111=ADVANCED_FACE('',(#99,#110),#96,.T.);
#112=CARTESIAN_POINT('',(0.0,72.000000000000014,0.0));
#113=DIRECTION('',(0.0,1.0,0.0));
#114=DIRECTION('',(0.0,0.0,1.0));
#115=AXIS2_PLACEMENT_3D('',#112,#113,#114);
#116=CYLINDRICAL_SURFACE('',#115,5.000000000000001);
#117=ORIENTED_EDGE('',*,*,#107,.F.);
#118=EDGE_LOOP('',(#117));
#119=FACE_BOUND('',#118,.T.);
#120=CARTESIAN_POINT('',(0.0,0.200000000000006,4.999999999999999));
#121=VERTEX_POINT('',#120);
#122=CARTESIAN_POINT('',(0.0,0.200000000000006,0.0));
#123=DIRECTION('',(0.0,1.0,0.0));
#124=DIRECTION('',(0.0,0.0,1.0));
#125=AXIS2_PLACEMENT_3D('',#122,#123,#124);
#126=CIRCLE('',#125,4.999999999999999);
#127=EDGE_CURVE('',#121,#121,#126,.T.);
#128=ORIENTED_EDGE('',*,*,#127,.T.);
#129=EDGE_LOOP('',(#128));
#130=FACE_BOUND('',#129,.T.);
#131=ADVANCED_FACE('',(#119,#130),#116,.T.);
#132=CARTESIAN_POINT('',(0.0,0.200000000000000,0.0));
#133=DIRECTION('',(0.0,1.0,0.0));
#134=DIRECTION('',(0.0,0.0,1.0));
#135=AXIS2_PLACEMENT_3D('',#132,#133,#134);
#136=TOROIDAL_SURFACE('',#135,4.800000000000000,0.200000000000000);
#137=CARTESIAN_POINT('',(0.0,0.0,4.800000000000000));
#138=VERTEX_POINT('',#137);
#139=CARTESIAN_POINT('',(0.0,0.0,0.0));
#140=DIRECTION('',(0.0,1.0,0.0));
#141=DIRECTION('',(0.0,0.0,1.0));
#142=AXIS2_PLACEMENT_3D('',#139,#140,#141);
#143=CIRCLE('',#142,4.800000000000000);
#144=EDGE_CURVE('',#138,#138,#143,.T.);
#145=ORIENTED_EDGE('',*,*,#144,.T.);
#146=EDGE_LOOP('',(#145));
#147=FACE_BOUND('',#146,.T.);
#148=ORIENTED_EDGE('',*,*,#127,.F.);
#149=EDGE_LOOP('',(#148));
#150=FACE_BOUND('',#149,.T.);
#151=ADVANCED_FACE('',(#147,#150),#136,.T.);
#152=CARTESIAN_POINT('',(0.0,6.938894E-15,0.0));
#153=DIRECTION('',(0.0,1.0,0.0));
#154=DIRECTION('',(0.0,0.0,1.0));
#155=AXIS2_PLACEMENT_3D('',#152,#153,#154);
#156=PLANE('',#155);
#157=ORIENTED_EDGE('',*,*,#144,.F.);
#158=EDGE_LOOP('',(#157));
#159=FACE_OUTER_BOUND('',#158,.T.);
#160=ADVANCED_FACE('',(#159),#156,.F.);
#161=CLOSED_SHELL('',(#91,#111,#131,#151,#160));
#162=MANIFOLD_SOLID_BREP('',#161);
#163=ADVANCED_BREP_SHAPE_REPRESENTATION('',(#162),#28);
#164=SHAPE_REPRESENTATION_RELATIONSHIP('','',#163,#38);
#165=GEOMETRIC_SET('',(#45,#51,#57,#68,#74));
#166=GEOMETRICALLY_BOUNDED_SURFACE_SHAPE_REPRESENTATION('',(#165),#28);
#167=SHAPE_REPRESENTATION_RELATIONSHIP('','',#166,#38);
#168=COLOUR_RGB('',0.0,0.0,0.501960784313725);
#169=DRAUGHTING_PRE_DEFINED_CURVE_FONT('continuous');
#170=CURVE_STYLE('',#169,POSITIVE_LENGTH_MEASURE(0.100000000000000),#168);
#171=PRESENTATION_STYLE_ASSIGNMENT((#170));
#172=STYLED_ITEM('',(#171),#45);
#173=STYLED_ITEM('',(#171),#51);
#174=STYLED_ITEM('',(#171),#57);
#175=STYLED_ITEM('',(#171),#68);
#176=STYLED_ITEM('',(#171),#74);
#177=COLOUR_RGB('',0.501960784313725,0.501960784313725,0.501960784313725);
#178=FILL_AREA_STYLE_COLOUR('',#177);
#179=FILL_AREA_STYLE('',(#178));
#180=SURFACE_STYLE_FILL_AREA(#179);
#181=SURFACE_SIDE_STYLE('',(#180));
#182=SURFACE_STYLE_USAGE(.BOTH.,#181);
#183=PRESENTATION_STYLE_ASSIGNMENT((#182));
#184=STYLED_ITEM('',(#183),#91);
#185=STYLED_ITEM('',(#183),#111);
#186=STYLED_ITEM('',(#183),#131);
#187=STYLED_ITEM('',(#183),#151);
#188=STYLED_ITEM('',(#183),#160);
#189=STYLED_ITEM('',(#183),#162);
#190=PRESENTATION_LAYER_ASSIGNMENT('0','',(#45,#51,#57,#68,#74,#162));
#191=MECHANICAL_DESIGN_GEOMETRIC_PRESENTATION_REPRESENTATION('',(#172,#173,#174,#175,#176,#184,#185,#186,#187,#188,#189),#28);
#192=PRESENTATION_STYLE_ASSIGNMENT((NULL_STYLE(.NULL.)));
#193=DRAUGHTING_MODEL('',(#203,#204),#28);
#194=AXIS2_PLACEMENT_3D('',#195,#196,#197);
#195=CARTESIAN_POINT('',(0.0,0.0,0.0));
#196=DIRECTION('',(0.0,0.0,1.0));
#197=DIRECTION('',(1.0,0.0,0.0));
#198=REPRESENTATION_MAP(#194,#38);
#199=AXIS2_PLACEMENT_3D('',#200,#201,#202);
#200=CARTESIAN_POINT('',(0.0,0.0,0.0));
#201=DIRECTION('',(0.0,0.0,1.0));
#202=DIRECTION('',(1.0,0.0,0.0));
#203=MAPPED_ITEM('',#198,#199);
#204=STYLED_ITEM('',(#192),#203);
ENDSEC;
END-ISO-10303-21;
