ISO-10303-21;
HEADER;
/****************************************************************
 * Generated by software with PDElib inside                     *
 * PDElib Version v7.5, created Tue 10/04/2016 12:12:03.09      *
 * International Technegroup Inc. (www.iti-global.com)          *
 ****************************************************************/
FILE_DESCRIPTION((''),'2;1');
FILE_NAME('C:\\Users\\afiff\\Documents\\my mcam2019\\Parts\\G76 0100 050 0400 100.stp','2020-06-25T10:45:12',(''),(''),'STEP Write','Mastercam 2019 ... CNC Software, Inc.','');
FILE_SCHEMA(('AUTOMOTIVE_DESIGN'));
ENDSEC;
DATA;
#10=(NAMED_UNIT(*)PLANE_ANGLE_UNIT()SI_UNIT($,.RADIAN.));
#11=DIMENSIONAL_EXPONENTS(0.0,0.0,0.0,0.0,0.0,0.0,0.0);
#12=PLANE_ANGLE_MEASURE_WITH_UNIT(PLANE_ANGLE_MEASURE(0.017453292500000),#10);
#16=(CONVERSION_BASED_UNIT('DEGREE',#12)NAMED_UNIT(#11)PLANE_ANGLE_UNIT());
#20=(NAMED_UNIT(*)SI_UNIT($,.STERADIAN.)SOLID_ANGLE_UNIT());
#24=(LENGTH_UNIT()NAMED_UNIT(*)SI_UNIT(.MILLI.,.METRE.));
#26=UNCERTAINTY_MEASURE_WITH_UNIT(LENGTH_MEASURE(0.000050000000000),#24,'DISTANCE_ACCURACY_VALUE','');
#28=(GEOMETRIC_REPRESENTATION_CONTEXT(3)GLOBAL_UNCERTAINTY_ASSIGNED_CONTEXT((#26))GLOBAL_UNIT_ASSIGNED_CONTEXT((#16,#20,#24))REPRESENTATION_CONTEXT('','3D'));
#29=APPLICATION_CONTEXT('automotive design');
#30=APPLICATION_PROTOCOL_DEFINITION('Draft International Standard','automotive_design',1998,#29);
#31=PRODUCT_CONTEXT('None',#29,'mechanical');
#32=PRODUCT('None','None','None',(#31));
#33=PRODUCT_RELATED_PRODUCT_CATEGORY('part','description',(#32));
#34=PRODUCT_DEFINITION_FORMATION('None','None',#32);
#35=PRODUCT_DEFINITION_CONTEXT('part definition',#29,'design');
#36=PRODUCT_DEFINITION('None','None',#34,#35);
#37=PRODUCT_DEFINITION_SHAPE('None','None',#36);
#38=SHAPE_REPRESENTATION('',(),#28);
#39=SHAPE_DEFINITION_REPRESENTATION(#37,#38);
#40=CARTESIAN_POINT('',(0.0,50.0,0.0));
#41=DIRECTION('',(1.0,0.0,0.0));
#42=VECTOR('',#41,2.0);
#43=LINE('',#40,#42);
#44=CARTESIAN_POINT('',(2.0,50.0,0.0));
#45=TRIMMED_CURVE('',#43,(PARAMETER_VALUE(0.0),#40),(PARAMETER_VALUE(1.0),#44),.T.,.PARAMETER.);
#46=CARTESIAN_POINT('',(0.500000000000000,0.500000000000000,0.0));
#47=DIRECTION('',(0.0,1.0,0.0));
#48=VECTOR('',#47,0.300000000000000);
#49=LINE('',#46,#48);
#50=CARTESIAN_POINT('',(0.500000000000000,0.800000000000000,0.0));
#51=TRIMMED_CURVE('',#49,(PARAMETER_VALUE(0.0),#46),(PARAMETER_VALUE(1.0),#50),.T.,.PARAMETER.);
#52=CARTESIAN_POINT('',(0.500000000000000,0.800000000000000,0.0));
#53=DIRECTION('',(-1.0,0.0,0.0));
#54=VECTOR('',#53,0.050000000000000);
#55=LINE('',#52,#54);
#56=CARTESIAN_POINT('',(0.450000000000000,0.800000000000000,0.0));
#57=TRIMMED_CURVE('',#55,(PARAMETER_VALUE(0.0),#52),(PARAMETER_VALUE(1.0),#56),.T.,.PARAMETER.);
#58=CARTESIAN_POINT('',(0.450000000000000,0.800000000000000,0.0));
#59=DIRECTION('',(0.0,1.0,0.0));
#60=VECTOR('',#59,9.199999999999999);
#61=LINE('',#58,#60);
#62=CARTESIAN_POINT('',(0.450000000000001,10.0,0.0));
#63=TRIMMED_CURVE('',#61,(PARAMETER_VALUE(0.0),#58),(PARAMETER_VALUE(1.0),#62),.T.,.PARAMETER.);
#64=CARTESIAN_POINT('',(0.450000000000001,10.0,0.0));
#65=DIRECTION('',(0.258819045102522,0.965925826289068,0.0));
#66=VECTOR('',#65,5.988740122992204);
#67=LINE('',#64,#66);
#68=CARTESIAN_POINT('',(2.0,15.784678751731740,0.0));
#69=TRIMMED_CURVE('',#67,(PARAMETER_VALUE(0.0),#64),(PARAMETER_VALUE(1.0),#68),.T.,.PARAMETER.);
#70=CARTESIAN_POINT('',(2.0,50.0,0.0));
#71=DIRECTION('',(0.0,-1.0,0.0));
#72=VECTOR('',#71,34.215321248268268);
#73=LINE('',#70,#72);
#74=CARTESIAN_POINT('',(2.0,15.784678751731731,0.0));
#75=TRIMMED_CURVE('',#73,(PARAMETER_VALUE(0.0),#70),(PARAMETER_VALUE(1.0),#74),.T.,.PARAMETER.);
#76=CARTESIAN_POINT('',(0.0,0.500000000000000,0.0));
#77=DIRECTION('',(0.0,0.0,1.0));
#78=DIRECTION('',(1.0,0.0,0.0));
#79=AXIS2_PLACEMENT_3D('',#76,#77,#78);
#80=CIRCLE('',#79,0.500000000000000);
#81=CARTESIAN_POINT('',(0.0,0.0,0.0));
#82=DIRECTION('',(0.0,1.0,0.0));
#83=VECTOR('',#82,50.0);
#84=LINE('',#81,#83);
#85=CARTESIAN_POINT('',(3.061617E-15,50.0,0.0));
#86=TRIMMED_CURVE('',#84,(PARAMETER_VALUE(0.0),#81),(PARAMETER_VALUE(1.0),#85),.T.,.PARAMETER.);
#87=CARTESIAN_POINT('',(3.749399E-33,50.0,0.0));
#88=DIRECTION('',(6.123234E-17,1.0,0.0));
#89=DIRECTION('',(-1.0,6.123234E-17,0.0));
#90=AXIS2_PLACEMENT_3D('',#87,#88,#89);
#91=PLANE('',#90);
#92=CARTESIAN_POINT('',(-1.999999999999994,50.0,0.0));
#93=VERTEX_POINT('',#92);
#94=CARTESIAN_POINT('',(6.123234E-15,50.0,0.0));
#95=DIRECTION('',(6.123234E-17,1.0,0.0));
#96=DIRECTION('',(-1.0,6.123234E-17,0.0));
#97=AXIS2_PLACEMENT_3D('',#94,#95,#96);
#98=CIRCLE('',#97,1.999999999999997);
#99=EDGE_CURVE('',#93,#93,#98,.T.);
#100=ORIENTED_EDGE('',*,*,#99,.T.);
#101=EDGE_LOOP('',(#100));
#102=FACE_OUTER_BOUND('',#101,.T.);
#103=ADVANCED_FACE('',(#102),#91,.T.);
#104=CARTESIAN_POINT('',(3.061617E-15,50.0,0.0));
#105=DIRECTION('',(6.123234E-17,1.0,0.0));
#106=DIRECTION('',(-1.0,6.123234E-17,0.0));
#107=AXIS2_PLACEMENT_3D('',#104,#105,#106);
#108=CYLINDRICAL_SURFACE('',#107,1.999999999999998);
#109=CARTESIAN_POINT('',(-1.999999999999999,15.784678751731740,0.0));
#110=VERTEX_POINT('',#109);
#111=CARTESIAN_POINT('',(1.933066E-15,15.784678751731740,0.0));
#112=DIRECTION('',(6.123234E-17,1.0,0.0));
#113=DIRECTION('',(-1.0,6.123234E-17,0.0));
#114=AXIS2_PLACEMENT_3D('',#111,#112,#113);
#115=CIRCLE('',#114,2.0);
#116=EDGE_CURVE('',#110,#110,#115,.T.);
#117=ORIENTED_EDGE('',*,*,#116,.T.);
#118=EDGE_LOOP('',(#117));
#119=FACE_BOUND('',#118,.T.);
#120=ORIENTED_EDGE('',*,*,#99,.F.);
#121=EDGE_LOOP('',(#120));
#122=FACE_BOUND('',#121,.T.);
#123=ADVANCED_FACE('',(#119,#122),#108,.T.);
#124=CARTESIAN_POINT('',(6.123234E-16,10.0,0.0));
#125=DIRECTION('',(6.123234E-17,1.0,0.0));
#126=DIRECTION('',(-1.0,6.123234E-17,0.0));
#127=AXIS2_PLACEMENT_3D('',#124,#125,#126);
#128=CONICAL_SURFACE('',#127,0.450000000000000,15.000000000000043);
#129=ORIENTED_EDGE('',*,*,#116,.F.);
#130=EDGE_LOOP('',(#129));
#131=FACE_OUTER_BOUND('',#130,.T.);
#132=CARTESIAN_POINT('',(-0.449999999999999,10.0,0.0));
#133=VERTEX_POINT('',#132);
#134=CARTESIAN_POINT('',(1.224647E-15,10.0,0.0));
#135=DIRECTION('',(6.123234E-17,1.0,0.0));
#136=DIRECTION('',(-1.0,6.123234E-17,0.0));
#137=AXIS2_PLACEMENT_3D('',#134,#135,#136);
#138=CIRCLE('',#137,0.450000000000000);
#139=EDGE_CURVE('',#133,#133,#138,.T.);
#140=ORIENTED_EDGE('',*,*,#139,.T.);
#141=EDGE_LOOP('',(#140));
#142=FACE_BOUND('',#141,.T.);
#143=ADVANCED_FACE('',(#131,#142),#128,.T.);
#144=CARTESIAN_POINT('',(3.061617E-15,50.0,0.0));
#145=DIRECTION('',(6.123234E-17,1.0,0.0));
#146=DIRECTION('',(-1.0,6.123234E-17,0.0));
#147=AXIS2_PLACEMENT_3D('',#144,#145,#146);
#148=CYLINDRICAL_SURFACE('',#147,0.450000000000000);
#149=ORIENTED_EDGE('',*,*,#139,.F.);
#150=EDGE_LOOP('',(#149));
#151=FACE_BOUND('',#150,.T.);
#152=CARTESIAN_POINT('',(-0.450000000000000,0.800000000000002,0.0));
#153=VERTEX_POINT('',#152);
#154=CARTESIAN_POINT('',(9.797174E-17,0.800000000000002,0.0));
#155=DIRECTION('',(6.123234E-17,1.0,0.0));
#156=DIRECTION('',(-1.0,6.123234E-17,0.0));
#157=AXIS2_PLACEMENT_3D('',#154,#155,#156);
#158=CIRCLE('',#157,0.450000000000000);
#159=EDGE_CURVE('',#153,#153,#158,.T.);
#160=ORIENTED_EDGE('',*,*,#159,.T.);
#161=EDGE_LOOP('',(#160));
#162=FACE_BOUND('',#161,.T.);
#163=ADVANCED_FACE('',(#151,#162),#148,.T.);
#164=CARTESIAN_POINT('',(0.500000000000000,0.800000000000000,0.0));
#165=DIRECTION('',(-6.123234E-17,-1.0,0.0));
#166=DIRECTION('',(1.0,-6.123234E-17,0.0));
#167=AXIS2_PLACEMENT_3D('',#164,#165,#166);
#168=PLANE('',#167);
#169=CARTESIAN_POINT('',(-0.500000000000000,0.800000000000002,0.0));
#170=VERTEX_POINT('',#169);
#171=CARTESIAN_POINT('',(9.797174E-17,0.800000000000002,0.0));
#172=DIRECTION('',(6.123234E-17,1.0,0.0));
#173=DIRECTION('',(-1.0,6.123234E-17,0.0));
#174=AXIS2_PLACEMENT_3D('',#171,#172,#173);
#175=CIRCLE('',#174,0.500000000000000);
#176=EDGE_CURVE('',#170,#170,#175,.T.);
#177=ORIENTED_EDGE('',*,*,#176,.T.);
#178=EDGE_LOOP('',(#177));
#179=FACE_OUTER_BOUND('',#178,.T.);
#180=ORIENTED_EDGE('',*,*,#159,.F.);
#181=EDGE_LOOP('',(#180));
#182=FACE_BOUND('',#181,.T.);
#183=ADVANCED_FACE('',(#179,#182),#168,.F.);
#184=CARTESIAN_POINT('',(3.061617E-15,50.0,0.0));
#185=DIRECTION('',(6.123234E-17,1.0,0.0));
#186=DIRECTION('',(-1.0,6.123234E-17,0.0));
#187=AXIS2_PLACEMENT_3D('',#184,#185,#186);
#188=CYLINDRICAL_SURFACE('',#187,0.500000000000000);
#189=ORIENTED_EDGE('',*,*,#176,.F.);
#190=EDGE_LOOP('',(#189));
#191=FACE_BOUND('',#190,.T.);
#192=CARTESIAN_POINT('',(-0.500000000000000,0.500000000000000,0.0));
#193=VERTEX_POINT('',#192);
#194=CARTESIAN_POINT('',(6.123234E-17,0.500000000000000,0.0));
#195=DIRECTION('',(6.123234E-17,1.0,0.0));
#196=DIRECTION('',(-1.0,6.123234E-17,0.0));
#197=AXIS2_PLACEMENT_3D('',#194,#195,#196);
#198=CIRCLE('',#197,0.500000000000000);
#199=EDGE_CURVE('',#193,#193,#198,.T.);
#200=ORIENTED_EDGE('',*,*,#199,.T.);
#201=EDGE_LOOP('',(#200));
#202=FACE_BOUND('',#201,.T.);
#203=ADVANCED_FACE('',(#191,#202),#188,.T.);
#204=CARTESIAN_POINT('',(0.0,0.500000000000000,0.0));
#205=DIRECTION('',(6.123234E-17,1.0,0.0));
#206=DIRECTION('',(1.0,-6.123234E-17,0.0));
#207=AXIS2_PLACEMENT_3D('',#204,#205,#206);
#208=SPHERICAL_SURFACE('',#207,0.500000000000000);
#209=ORIENTED_EDGE('',*,*,#199,.F.);
#210=EDGE_LOOP('',(#209));
#211=FACE_OUTER_BOUND('',#210,.T.);
#212=ADVANCED_FACE('',(#211),#208,.T.);
#213=CLOSED_SHELL('',(#103,#123,#143,#163,#183,#203,#212));
#214=MANIFOLD_SOLID_BREP('',#213);
#215=ADVANCED_BREP_SHAPE_REPRESENTATION('',(#214),#28);
#216=SHAPE_REPRESENTATION_RELATIONSHIP('','',#215,#38);
#217=GEOMETRIC_SET('',(#45,#51,#57,#63,#69,#75,#86));
#218=GEOMETRICALLY_BOUNDED_SURFACE_SHAPE_REPRESENTATION('',(#217),#28);
#219=SHAPE_REPRESENTATION_RELATIONSHIP('','',#218,#38);
#220=COLOUR_RGB('',0.0,0.0,0.501960784313725);
#221=DRAUGHTING_PRE_DEFINED_CURVE_FONT('continuous');
#222=CURVE_STYLE('',#221,POSITIVE_LENGTH_MEASURE(0.100000000000000),#220);
#223=PRESENTATION_STYLE_ASSIGNMENT((#222));
#224=STYLED_ITEM('',(#223),#45);
#225=STYLED_ITEM('',(#223),#51);
#226=STYLED_ITEM('',(#223),#57);
#227=STYLED_ITEM('',(#223),#63);
#228=STYLED_ITEM('',(#223),#69);
#229=STYLED_ITEM('',(#223),#75);
#230=STYLED_ITEM('',(#223),#86);
#231=COLOUR_RGB('',0.501960784313725,0.501960784313725,0.501960784313725);
#232=FILL_AREA_STYLE_COLOUR('',#231);
#233=FILL_AREA_STYLE('',(#232));
#234=SURFACE_STYLE_FILL_AREA(#233);
#235=SURFACE_SIDE_STYLE('',(#234));
#236=SURFACE_STYLE_USAGE(.BOTH.,#235);
#237=PRESENTATION_STYLE_ASSIGNMENT((#236));
#238=STYLED_ITEM('',(#237),#103);
#239=STYLED_ITEM('',(#237),#123);
#240=STYLED_ITEM('',(#237),#143);
#241=STYLED_ITEM('',(#237),#163);
#242=STYLED_ITEM('',(#237),#183);
#243=STYLED_ITEM('',(#237),#203);
#244=STYLED_ITEM('',(#237),#212);
#245=STYLED_ITEM('',(#237),#214);
#246=PRESENTATION_LAYER_ASSIGNMENT('Unnamed Level 1','',(#45,#51,#57,#63,#69,#75,#86,#214));
#247=MECHANICAL_DESIGN_GEOMETRIC_PRESENTATION_REPRESENTATION('',(#224,#225,#226,#227,#228,#229,#230,#238,#239,#240,#241,#242,#243,#244,#245),#28);
#248=PRESENTATION_STYLE_ASSIGNMENT((NULL_STYLE(.NULL.)));
#249=DRAUGHTING_MODEL('',(#259,#260),#28);
#250=AXIS2_PLACEMENT_3D('',#251,#252,#253);
#251=CARTESIAN_POINT('',(0.0,0.0,0.0));
#252=DIRECTION('',(0.0,0.0,1.0));
#253=DIRECTION('',(1.0,0.0,0.0));
#254=REPRESENTATION_MAP(#250,#38);
#255=AXIS2_PLACEMENT_3D('',#256,#257,#258);
#256=CARTESIAN_POINT('',(0.0,0.0,0.0));
#257=DIRECTION('',(0.0,0.0,1.0));
#258=DIRECTION('',(1.0,0.0,0.0));
#259=MAPPED_ITEM('',#254,#255);
#260=STYLED_ITEM('',(#248),#259);
ENDSEC;
END-ISO-10303-21;
