ISO-10303-21;
HEADER;
/****************************************************************
 * Generated by software with PDElib inside                     *
 * PDElib Version v7.5, created Tue 10/04/2016 12:12:03.09      *
 * International Technegroup Inc. (www.iti-global.com)          *
 ****************************************************************/
FILE_DESCRIPTION((''),'2;1');
FILE_NAME('X:\\2.0 Engineer\\AFIFF\\HPMT\\PROJECT\\2020\\Dormer Pramet\\STP\\G51 1000 100.stp','2020-06-25T14:47:03',(''),(''),'STEP Write','Mastercam 2019 ... CNC Software, Inc.','');
FILE_SCHEMA(('AUTOMOTIVE_DESIGN'));
ENDSEC;
DATA;
#10=(NAMED_UNIT(*)PLANE_ANGLE_UNIT()SI_UNIT($,.RADIAN.));
#11=DIMENSIONAL_EXPONENTS(0.0,0.0,0.0,0.0,0.0,0.0,0.0);
#12=PLANE_ANGLE_MEASURE_WITH_UNIT(PLANE_ANGLE_MEASURE(0.017453292500000),#10);
#16=(CONVERSION_BASED_UNIT('DEGREE',#12)NAMED_UNIT(#11)PLANE_ANGLE_UNIT());
#20=(NAMED_UNIT(*)SI_UNIT($,.STERADIAN.)SOLID_ANGLE_UNIT());
#24=(LENGTH_UNIT()NAMED_UNIT(*)SI_UNIT(.MILLI.,.METRE.));
#26=UNCERTAINTY_MEASURE_WITH_UNIT(LENGTH_MEASURE(0.000050000000000),#24,'DISTANCE_ACCURACY_VALUE','');
#28=(GEOMETRIC_REPRESENTATION_CONTEXT(3)GLOBAL_UNCERTAINTY_ASSIGNED_CONTEXT((#26))GLOBAL_UNIT_ASSIGNED_CONTEXT((#16,#20,#24))REPRESENTATION_CONTEXT('','3D'));
#29=APPLICATION_CONTEXT('automotive design');
#30=APPLICATION_PROTOCOL_DEFINITION('Draft International Standard','automotive_design',1998,#29);
#31=PRODUCT_CONTEXT('None',#29,'mechanical');
#32=PRODUCT('None','None','None',(#31));
#33=PRODUCT_RELATED_PRODUCT_CATEGORY('part','description',(#32));
#34=PRODUCT_DEFINITION_FORMATION('None','None',#32);
#35=PRODUCT_DEFINITION_CONTEXT('part definition',#29,'design');
#36=PRODUCT_DEFINITION('None','None',#34,#35);
#37=PRODUCT_DEFINITION_SHAPE('None','None',#36);
#38=SHAPE_REPRESENTATION('',(),#28);
#39=SHAPE_DEFINITION_REPRESENTATION(#37,#38);
#40=CARTESIAN_POINT('',(0.0,100.0,0.0));
#41=DIRECTION('',(1.0,0.0,0.0));
#42=VECTOR('',#41,5.0);
#43=LINE('',#40,#42);
#44=CARTESIAN_POINT('',(5.0,100.0,0.0));
#45=TRIMMED_CURVE('',#43,(PARAMETER_VALUE(0.0),#40),(PARAMETER_VALUE(1.0),#44),.T.,.PARAMETER.);
#46=CARTESIAN_POINT('',(0.0,0.0,0.0));
#47=DIRECTION('',(1.0,0.0,0.0));
#48=VECTOR('',#47,5.0);
#49=LINE('',#46,#48);
#50=CARTESIAN_POINT('',(5.0,0.0,0.0));
#51=TRIMMED_CURVE('',#49,(PARAMETER_VALUE(0.0),#46),(PARAMETER_VALUE(1.0),#50),.T.,.PARAMETER.);
#52=CARTESIAN_POINT('',(5.0,0.0,0.0));
#53=DIRECTION('',(0.0,1.0,0.0));
#54=VECTOR('',#53,50.0);
#55=LINE('',#52,#54);
#56=CARTESIAN_POINT('',(5.000000000000003,50.0,0.0));
#57=TRIMMED_CURVE('',#55,(PARAMETER_VALUE(0.0),#52),(PARAMETER_VALUE(1.0),#56),.T.,.PARAMETER.);
#58=CARTESIAN_POINT('',(5.0,50.0,0.0));
#59=DIRECTION('',(0.0,1.0,0.0));
#60=VECTOR('',#59,50.0);
#61=LINE('',#58,#60);
#62=CARTESIAN_POINT('',(5.0,100.0,0.0));
#63=TRIMMED_CURVE('',#61,(PARAMETER_VALUE(0.0),#58),(PARAMETER_VALUE(1.0),#62),.T.,.PARAMETER.);
#64=CARTESIAN_POINT('',(0.0,0.0,0.0));
#65=DIRECTION('',(0.0,1.0,0.0));
#66=VECTOR('',#65,100.0);
#67=LINE('',#64,#66);
#68=CARTESIAN_POINT('',(6.123234E-15,100.0,0.0));
#69=TRIMMED_CURVE('',#67,(PARAMETER_VALUE(0.0),#64),(PARAMETER_VALUE(1.0),#68),.T.,.PARAMETER.);
#70=CARTESIAN_POINT('',(9.373499E-33,100.0,0.0));
#71=DIRECTION('',(6.123234E-17,1.0,0.0));
#72=DIRECTION('',(-1.0,6.123234E-17,0.0));
#73=AXIS2_PLACEMENT_3D('',#70,#71,#72);
#74=PLANE('',#73);
#75=CARTESIAN_POINT('',(-4.999999999999988,100.0,0.0));
#76=VERTEX_POINT('',#75);
#77=CARTESIAN_POINT('',(1.224647E-14,100.0,0.0));
#78=DIRECTION('',(6.123234E-17,1.0,0.0));
#79=DIRECTION('',(-1.0,6.123234E-17,0.0));
#80=AXIS2_PLACEMENT_3D('',#77,#78,#79);
#81=CIRCLE('',#80,4.999999999999994);
#82=EDGE_CURVE('',#76,#76,#81,.T.);
#83=ORIENTED_EDGE('',*,*,#82,.T.);
#84=EDGE_LOOP('',(#83));
#85=FACE_OUTER_BOUND('',#84,.T.);
#86=ADVANCED_FACE('',(#85),#74,.T.);
#87=CARTESIAN_POINT('',(6.123234E-15,100.0,0.0));
#88=DIRECTION('',(6.123234E-17,1.0,0.0));
#89=DIRECTION('',(-1.0,6.123234E-17,0.0));
#90=AXIS2_PLACEMENT_3D('',#87,#88,#89);
#91=CYLINDRICAL_SURFACE('',#90,4.999999999999996);
#92=ORIENTED_EDGE('',*,*,#82,.F.);
#93=EDGE_LOOP('',(#92));
#94=FACE_BOUND('',#93,.T.);
#95=CARTESIAN_POINT('',(-4.999999999999996,50.0,0.0));
#96=VERTEX_POINT('',#95);
#97=CARTESIAN_POINT('',(6.123234E-15,50.0,0.0));
#98=DIRECTION('',(6.123234E-17,1.0,0.0));
#99=DIRECTION('',(-1.0,6.123234E-17,0.0));
#100=AXIS2_PLACEMENT_3D('',#97,#98,#99);
#101=CIRCLE('',#100,5.0);
#102=EDGE_CURVE('',#96,#96,#101,.T.);
#103=ORIENTED_EDGE('',*,*,#102,.T.);
#104=EDGE_LOOP('',(#103));
#105=FACE_BOUND('',#104,.T.);
#106=ADVANCED_FACE('',(#94,#105),#91,.T.);
#107=CARTESIAN_POINT('',(6.123234E-15,100.0,0.0));
#108=DIRECTION('',(6.123234E-17,1.0,0.0));
#109=DIRECTION('',(-1.0,6.123234E-17,0.0));
#110=AXIS2_PLACEMENT_3D('',#107,#108,#109);
#111=CYLINDRICAL_SURFACE('',#110,4.999999999999999);
#112=ORIENTED_EDGE('',*,*,#102,.F.);
#113=EDGE_LOOP('',(#112));
#114=FACE_BOUND('',#113,.T.);
#115=CARTESIAN_POINT('',(-5.0,3.061617E-16,0.0));
#116=VERTEX_POINT('',#115);
#117=CARTESIAN_POINT('',(0.0,0.0,0.0));
#118=DIRECTION('',(6.123234E-17,1.0,0.0));
#119=DIRECTION('',(-1.0,6.123234E-17,0.0));
#120=AXIS2_PLACEMENT_3D('',#117,#118,#119);
#121=CIRCLE('',#120,5.0);
#122=EDGE_CURVE('',#116,#116,#121,.T.);
#123=ORIENTED_EDGE('',*,*,#122,.T.);
#124=EDGE_LOOP('',(#123));
#125=FACE_BOUND('',#124,.T.);
#126=ADVANCED_FACE('',(#114,#125),#111,.T.);
#127=CARTESIAN_POINT('',(9.373499E-33,1.530808E-16,0.0));
#128=DIRECTION('',(6.123234E-17,1.0,0.0));
#129=DIRECTION('',(-1.0,6.123234E-17,0.0));
#130=AXIS2_PLACEMENT_3D('',#127,#128,#129);
#131=PLANE('',#130);
#132=ORIENTED_EDGE('',*,*,#122,.F.);
#133=EDGE_LOOP('',(#132));
#134=FACE_OUTER_BOUND('',#133,.T.);
#135=ADVANCED_FACE('',(#134),#131,.F.);
#136=CLOSED_SHELL('',(#86,#106,#126,#135));
#137=MANIFOLD_SOLID_BREP('',#136);
#138=ADVANCED_BREP_SHAPE_REPRESENTATION('',(#137),#28);
#139=SHAPE_REPRESENTATION_RELATIONSHIP('','',#138,#38);
#140=GEOMETRIC_SET('',(#45,#51,#57,#63,#69));
#141=GEOMETRICALLY_BOUNDED_SURFACE_SHAPE_REPRESENTATION('',(#140),#28);
#142=SHAPE_REPRESENTATION_RELATIONSHIP('','',#141,#38);
#143=COLOUR_RGB('',0.0,0.0,0.501960784313725);
#144=DRAUGHTING_PRE_DEFINED_CURVE_FONT('continuous');
#145=CURVE_STYLE('',#144,POSITIVE_LENGTH_MEASURE(0.100000000000000),#143);
#146=PRESENTATION_STYLE_ASSIGNMENT((#145));
#147=STYLED_ITEM('',(#146),#45);
#148=STYLED_ITEM('',(#146),#51);
#149=STYLED_ITEM('',(#146),#57);
#150=STYLED_ITEM('',(#146),#63);
#151=STYLED_ITEM('',(#146),#69);
#152=COLOUR_RGB('',0.501960784313725,0.501960784313725,0.501960784313725);
#153=FILL_AREA_STYLE_COLOUR('',#152);
#154=FILL_AREA_STYLE('',(#153));
#155=SURFACE_STYLE_FILL_AREA(#154);
#156=SURFACE_SIDE_STYLE('',(#155));
#157=SURFACE_STYLE_USAGE(.BOTH.,#156);
#158=PRESENTATION_STYLE_ASSIGNMENT((#157));
#159=STYLED_ITEM('',(#158),#86);
#160=STYLED_ITEM('',(#158),#106);
#161=STYLED_ITEM('',(#158),#126);
#162=STYLED_ITEM('',(#158),#135);
#163=STYLED_ITEM('',(#158),#137);
#164=PRESENTATION_LAYER_ASSIGNMENT('Unnamed Level 1','',(#45,#51,#57,#63,#69,#137));
#165=MECHANICAL_DESIGN_GEOMETRIC_PRESENTATION_REPRESENTATION('',(#147,#148,#149,#150,#151,#159,#160,#161,#162,#163),#28);
#166=PRESENTATION_STYLE_ASSIGNMENT((NULL_STYLE(.NULL.)));
#167=DRAUGHTING_MODEL('',(#177,#178),#28);
#168=AXIS2_PLACEMENT_3D('',#169,#170,#171);
#169=CARTESIAN_POINT('',(0.0,0.0,0.0));
#170=DIRECTION('',(0.0,0.0,1.0));
#171=DIRECTION('',(1.0,0.0,0.0));
#172=REPRESENTATION_MAP(#168,#38);
#173=AXIS2_PLACEMENT_3D('',#174,#175,#176);
#174=CARTESIAN_POINT('',(0.0,0.0,0.0));
#175=DIRECTION('',(0.0,0.0,1.0));
#176=DIRECTION('',(1.0,0.0,0.0));
#177=MAPPED_ITEM('',#172,#173);
#178=STYLED_ITEM('',(#166),#177);
ENDSEC;
END-ISO-10303-21;
