ISO-10303-21;
HEADER;
/* Generated by software containing ST-Developer
 * from STEP Tools, Inc. (www.steptools.com) 
 */
/* OPTION: using custom schema-name function */

FILE_DESCRIPTION(
/* description */ (''),
/* implementation_level */ '2;1');

FILE_NAME(
/* name */ '115005087ndi000_00.stp',
/* time_stamp */ '2022-01-17T13:22:39+01:00',
/* author */ (''),
/* organization */ (''),
/* preprocessor_version */ 'ST-DEVELOPER v16.7',
/* originating_system */ 'SIEMENS PLM Software NX 12.0',
/* authorisation */ '');

FILE_SCHEMA (('AUTOMOTIVE_DESIGN { 1 0 10303 214 3 1 1 1 }'));
ENDSEC;

DATA;
#10=PROPERTY_DEFINITION_REPRESENTATION(#14,#12);
#11=PROPERTY_DEFINITION_REPRESENTATION(#15,#13);
#12=REPRESENTATION('',(#16),#207);
#13=REPRESENTATION('',(#17),#207);
#14=PROPERTY_DEFINITION('pmi validation property','',#21);
#15=PROPERTY_DEFINITION('pmi validation property','',#21);
#16=VALUE_REPRESENTATION_ITEM('number of annotations',COUNT_MEASURE(0.));
#17=VALUE_REPRESENTATION_ITEM('number of views',COUNT_MEASURE(0.));
#18=SHAPE_REPRESENTATION_RELATIONSHIP('None',
'relationship between nd733EC41720uqrt-None and nd733EC41720uqrt-None',
#30,#19);
#19=ADVANCED_BREP_SHAPE_REPRESENTATION('nd733EC41720uqrt-None',(#40),#207);
#20=SHAPE_DEFINITION_REPRESENTATION(#21,#30);
#21=PRODUCT_DEFINITION_SHAPE('','',#22);
#22=PRODUCT_DEFINITION(' ','',#24,#23);
#23=PRODUCT_DEFINITION_CONTEXT('part definition',#29,'design');
#24=PRODUCT_DEFINITION_FORMATION_WITH_SPECIFIED_SOURCE(' ',' ',#26,
 .NOT_KNOWN.);
#25=PRODUCT_RELATED_PRODUCT_CATEGORY('part','',(#26));
#26=PRODUCT('nd733EC41720uqrt','nd733EC41720uqrt',' ',(#27));
#27=PRODUCT_CONTEXT(' ',#29,'mechanical');
#28=APPLICATION_PROTOCOL_DEFINITION('international standard',
'automotive_design',2010,#29);
#29=APPLICATION_CONTEXT(
'core data for automotive mechanical design processes');
#30=SHAPE_REPRESENTATION('nd733EC41720uqrt-None',(#130),#207);
#31=PRESENTATION_LAYER_ASSIGNMENT('1','Layer 1',(#40));
#32=STYLED_ITEM('',(#33),#40);
#33=PRESENTATION_STYLE_ASSIGNMENT((#34));
#34=SURFACE_STYLE_USAGE(.BOTH.,#35);
#35=SURFACE_SIDE_STYLE('',(#36));
#36=SURFACE_STYLE_FILL_AREA(#37);
#37=FILL_AREA_STYLE('',(#38));
#38=FILL_AREA_STYLE_COLOUR('',#39);
#39=DRAUGHTING_PRE_DEFINED_COLOUR('yellow');
#40=MANIFOLD_SOLID_BREP('',#41);
#41=CLOSED_SHELL('',(#46,#47,#48,#49,#50,#51,#52,#53));
#42=TOROIDAL_SURFACE('',#145,2.65,0.2);
#43=PLANE('',#138);
#44=PLANE('',#144);
#45=PLANE('',#146);
#46=ADVANCED_FACE('',(#58,#59),#54,.F.);
#47=ADVANCED_FACE('',(#60,#61),#55,.T.);
#48=ADVANCED_FACE('',(#62,#63),#43,.F.);
#49=ADVANCED_FACE('',(#64,#65),#56,.T.);
#50=ADVANCED_FACE('',(#66,#67),#57,.F.);
#51=ADVANCED_FACE('',(#68,#69),#44,.F.);
#52=ADVANCED_FACE('',(#70,#71),#42,.T.);
#53=ADVANCED_FACE('',(#72,#73),#45,.T.);
#54=CONICAL_SURFACE('',#133,2.46020847053135,6.00000000000001);
#55=CONICAL_SURFACE('',#136,3.21802781513648,60.0000000000001);
#56=CONICAL_SURFACE('',#141,4.,6.99999999999999);
#57=CONICAL_SURFACE('',#142,4.,86.);
#58=FACE_BOUND('',#74,.T.);
#59=FACE_BOUND('',#75,.T.);
#60=FACE_BOUND('',#76,.T.);
#61=FACE_BOUND('',#77,.T.);
#62=FACE_BOUND('',#78,.T.);
#63=FACE_BOUND('',#79,.T.);
#64=FACE_BOUND('',#80,.T.);
#65=FACE_BOUND('',#81,.T.);
#66=FACE_BOUND('',#82,.T.);
#67=FACE_BOUND('',#83,.T.);
#68=FACE_BOUND('',#84,.T.);
#69=FACE_BOUND('',#85,.T.);
#70=FACE_BOUND('',#86,.T.);
#71=FACE_BOUND('',#87,.T.);
#72=FACE_BOUND('',#88,.T.);
#73=FACE_BOUND('',#89,.T.);
#74=EDGE_LOOP('',(#90));
#75=EDGE_LOOP('',(#91));
#76=EDGE_LOOP('',(#92));
#77=EDGE_LOOP('',(#93));
#78=EDGE_LOOP('',(#94));
#79=EDGE_LOOP('',(#95));
#80=EDGE_LOOP('',(#96));
#81=EDGE_LOOP('',(#97));
#82=EDGE_LOOP('',(#98));
#83=EDGE_LOOP('',(#99));
#84=EDGE_LOOP('',(#100));
#85=EDGE_LOOP('',(#101));
#86=EDGE_LOOP('',(#102));
#87=EDGE_LOOP('',(#103));
#88=EDGE_LOOP('',(#104));
#89=EDGE_LOOP('',(#105));
#90=ORIENTED_EDGE('',*,*,#114,.F.);
#91=ORIENTED_EDGE('',*,*,#115,.T.);
#92=ORIENTED_EDGE('',*,*,#116,.T.);
#93=ORIENTED_EDGE('',*,*,#117,.F.);
#94=ORIENTED_EDGE('',*,*,#117,.T.);
#95=ORIENTED_EDGE('',*,*,#118,.F.);
#96=ORIENTED_EDGE('',*,*,#119,.T.);
#97=ORIENTED_EDGE('',*,*,#120,.F.);
#98=ORIENTED_EDGE('',*,*,#118,.T.);
#99=ORIENTED_EDGE('',*,*,#119,.F.);
#100=ORIENTED_EDGE('',*,*,#114,.T.);
#101=ORIENTED_EDGE('',*,*,#121,.T.);
#102=ORIENTED_EDGE('',*,*,#121,.F.);
#103=ORIENTED_EDGE('',*,*,#116,.F.);
#104=ORIENTED_EDGE('',*,*,#115,.F.);
#105=ORIENTED_EDGE('',*,*,#120,.T.);
#106=VERTEX_POINT('',#183);
#107=VERTEX_POINT('',#185);
#108=VERTEX_POINT('',#188);
#109=VERTEX_POINT('',#190);
#110=VERTEX_POINT('',#193);
#111=VERTEX_POINT('',#196);
#112=VERTEX_POINT('',#198);
#113=VERTEX_POINT('',#202);
#114=EDGE_CURVE('',#106,#106,#122,.T.);
#115=EDGE_CURVE('',#107,#107,#123,.T.);
#116=EDGE_CURVE('',#108,#108,#124,.T.);
#117=EDGE_CURVE('',#109,#109,#125,.T.);
#118=EDGE_CURVE('',#110,#110,#126,.T.);
#119=EDGE_CURVE('',#111,#111,#127,.T.);
#120=EDGE_CURVE('',#112,#112,#128,.T.);
#121=EDGE_CURVE('',#113,#113,#129,.T.);
#122=CIRCLE('',#131,2.37086987055553);
#123=CIRCLE('',#132,2.01561755535754);
#124=CIRCLE('',#134,2.75);
#125=CIRCLE('',#135,3.05847817537682);
#126=CIRCLE('',#137,3.93);
#127=CIRCLE('',#139,4.);
#128=CIRCLE('',#140,3.60954509632876);
#129=CIRCLE('',#143,2.65);
#130=AXIS2_PLACEMENT_3D('',#181,#147,#148);
#131=AXIS2_PLACEMENT_3D('',#182,#149,#150);
#132=AXIS2_PLACEMENT_3D('',#184,#151,#152);
#133=AXIS2_PLACEMENT_3D('',#186,#153,#154);
#134=AXIS2_PLACEMENT_3D('',#187,#155,#156);
#135=AXIS2_PLACEMENT_3D('',#189,#157,#158);
#136=AXIS2_PLACEMENT_3D('',#191,#159,#160);
#137=AXIS2_PLACEMENT_3D('',#192,#161,#162);
#138=AXIS2_PLACEMENT_3D('',#194,#163,#164);
#139=AXIS2_PLACEMENT_3D('',#195,#165,#166);
#140=AXIS2_PLACEMENT_3D('',#197,#167,#168);
#141=AXIS2_PLACEMENT_3D('',#199,#169,#170);
#142=AXIS2_PLACEMENT_3D('',#200,#171,#172);
#143=AXIS2_PLACEMENT_3D('',#201,#173,#174);
#144=AXIS2_PLACEMENT_3D('',#203,#175,#176);
#145=AXIS2_PLACEMENT_3D('',#204,#177,#178);
#146=AXIS2_PLACEMENT_3D('',#205,#179,#180);
#147=DIRECTION('',(0.,0.,1.));
#148=DIRECTION('',(1.,0.,0.));
#149=DIRECTION('',(0.,0.,-1.));
#150=DIRECTION('',(-1.,0.,0.));
#151=DIRECTION('',(0.,0.,-1.));
#152=DIRECTION('',(-1.,0.,0.));
#153=DIRECTION('',(0.,0.,1.));
#154=DIRECTION('',(1.,0.,-4.63659720647493E-17));
#155=DIRECTION('',(0.,0.,-1.));
#156=DIRECTION('',(-1.,0.,0.));
#157=DIRECTION('',(0.,0.,-1.));
#158=DIRECTION('',(-1.,0.,0.));
#159=DIRECTION('',(0.,0.,-1.));
#160=DIRECTION('',(-1.,0.,1.41205608021825E-17));
#161=DIRECTION('',(0.,0.,-1.));
#162=DIRECTION('',(-1.,0.,0.));
#163=DIRECTION('',(0.,0.,-1.));
#164=DIRECTION('',(-1.,0.,0.));
#165=DIRECTION('',(0.,0.,-1.));
#166=DIRECTION('',(-1.,0.,0.));
#167=DIRECTION('',(0.,0.,-1.));
#168=DIRECTION('',(-1.,0.,0.));
#169=DIRECTION('',(0.,0.,1.));
#170=DIRECTION('',(1.,1.22464679914735E-16,0.));
#171=DIRECTION('',(0.,0.,1.));
#172=DIRECTION('',(1.,0.,0.));
#173=DIRECTION('',(0.,0.,1.));
#174=DIRECTION('',(-1.,0.,0.));
#175=DIRECTION('',(0.,0.,-1.));
#176=DIRECTION('',(-1.,0.,0.));
#177=DIRECTION('',(0.,0.,-1.));
#178=DIRECTION('',(-1.,0.,0.));
#179=DIRECTION('',(0.,0.,-1.));
#180=DIRECTION('',(-1.,0.,0.));
#181=CARTESIAN_POINT('',(0.,0.,0.));
#182=CARTESIAN_POINT('',(0.,0.,0.2));
#183=CARTESIAN_POINT('',(-2.37086987055553,0.,0.2));
#184=CARTESIAN_POINT('',(0.,0.,-3.18));
#185=CARTESIAN_POINT('',(-2.01561755535754,0.,-3.18));
#186=CARTESIAN_POINT('',(0.,0.,1.05));
#187=CARTESIAN_POINT('',(0.,0.,0.173205080756888));
#188=CARTESIAN_POINT('',(-2.75,0.,0.173205080756888));
#189=CARTESIAN_POINT('',(0.,0.,-0.00489487683604573));
#190=CARTESIAN_POINT('',(-3.05847817537682,0.,-0.00489487683604573));
#191=CARTESIAN_POINT('',(0.,0.,-0.0970109043003898));
#192=CARTESIAN_POINT('',(0.,0.,-0.00489487683604573));
#193=CARTESIAN_POINT('',(-3.93,0.,-0.00489487683604573));
#194=CARTESIAN_POINT('',(0.,0.,-0.00489487683604573));
#195=CARTESIAN_POINT('',(0.,0.,0.));
#196=CARTESIAN_POINT('',(-4.,0.,0.));
#197=CARTESIAN_POINT('',(0.,0.,-3.18));
#198=CARTESIAN_POINT('',(-3.60954509632876,0.,-3.18));
#199=CARTESIAN_POINT('',(0.,0.,0.));
#200=CARTESIAN_POINT('',(0.,0.,0.));
#201=CARTESIAN_POINT('',(0.,0.,0.2));
#202=CARTESIAN_POINT('',(-2.65,0.,0.2));
#203=CARTESIAN_POINT('',(0.,0.,0.2));
#204=CARTESIAN_POINT('',(0.,0.,0.));
#205=CARTESIAN_POINT('',(0.,0.,-3.18));
#206=MECHANICAL_DESIGN_GEOMETRIC_PRESENTATION_REPRESENTATION('',(#32),#207);
#207=(
GEOMETRIC_REPRESENTATION_CONTEXT(3)
GLOBAL_UNCERTAINTY_ASSIGNED_CONTEXT((#208))
GLOBAL_UNIT_ASSIGNED_CONTEXT((#214,#210,#209))
REPRESENTATION_CONTEXT('115005087ndi000_00','TOP_LEVEL_ASSEMBLY_PART')
);
#208=UNCERTAINTY_MEASURE_WITH_UNIT(LENGTH_MEASURE(2.E-5),#214,
'DISTANCE_ACCURACY_VALUE','Maximum Tolerance applied to model');
#209=(
NAMED_UNIT(*)
SI_UNIT($,.STERADIAN.)
SOLID_ANGLE_UNIT()
);
#210=(
CONVERSION_BASED_UNIT('DEGREE',#212)
NAMED_UNIT(#211)
PLANE_ANGLE_UNIT()
);
#211=DIMENSIONAL_EXPONENTS(0.,0.,0.,0.,0.,0.,0.);
#212=PLANE_ANGLE_MEASURE_WITH_UNIT(PLANE_ANGLE_MEASURE(0.0174532925),#213);
#213=(
NAMED_UNIT(*)
PLANE_ANGLE_UNIT()
SI_UNIT($,.RADIAN.)
);
#214=(
LENGTH_UNIT()
NAMED_UNIT(*)
SI_UNIT(.MILLI.,.METRE.)
);
ENDSEC;
END-ISO-10303-21;
