ISO-10303-21;
HEADER;
/* Generated by software containing ST-Developer
 * from STEP Tools, Inc. (www.steptools.com) 
 */
/* OPTION: using custom schema-name function */

FILE_DESCRIPTION(
/* description */ (''),
/* implementation_level */ '2;1');

FILE_NAME(
/* name */ 'PRSNL3225P15_SIM.stp',
/* time_stamp */ '2023-02-20T08:25:12+01:00',
/* author */ (''),
/* organization */ (''),
/* preprocessor_version */ 'ST-DEVELOPER v16.7',
/* originating_system */ 'SIEMENS PLM Software NX 12.0',
/* authorisation */ '');

FILE_SCHEMA (('AUTOMOTIVE_DESIGN { 1 0 10303 214 3 1 1 1 }'));
ENDSEC;

DATA;
#10=PROPERTY_DEFINITION_REPRESENTATION(#14,#12);
#11=PROPERTY_DEFINITION_REPRESENTATION(#15,#13);
#12=REPRESENTATION('',(#16),#563);
#13=REPRESENTATION('',(#17),#563);
#14=PROPERTY_DEFINITION('pmi validation property','',#21);
#15=PROPERTY_DEFINITION('pmi validation property','',#21);
#16=VALUE_REPRESENTATION_ITEM('number of annotations',COUNT_MEASURE(0.));
#17=VALUE_REPRESENTATION_ITEM('number of views',COUNT_MEASURE(0.));
#18=SHAPE_REPRESENTATION_RELATIONSHIP('None',
'relationship between kl620838BAE7d76n-None and kl620838BAE7d76n-None',
#30,#19);
#19=ADVANCED_BREP_SHAPE_REPRESENTATION('kl620838BAE7d76n-None',(#56,#57),
#563);
#20=SHAPE_DEFINITION_REPRESENTATION(#21,#30);
#21=PRODUCT_DEFINITION_SHAPE('','',#22);
#22=PRODUCT_DEFINITION(' ','',#24,#23);
#23=PRODUCT_DEFINITION_CONTEXT('part definition',#29,'design');
#24=PRODUCT_DEFINITION_FORMATION_WITH_SPECIFIED_SOURCE(' ',' ',#26,
 .NOT_KNOWN.);
#25=PRODUCT_RELATED_PRODUCT_CATEGORY('part','',(#26));
#26=PRODUCT('kl620838BAE7d76n','kl620838BAE7d76n',' ',(#27));
#27=PRODUCT_CONTEXT(' ',#29,'mechanical');
#28=APPLICATION_PROTOCOL_DEFINITION('international standard',
'automotive_design',2010,#29);
#29=APPLICATION_CONTEXT(
'core data for automotive mechanical design processes');
#30=SHAPE_REPRESENTATION('kl620838BAE7d76n-None',(#348),#563);
#31=DRAUGHTING_PRE_DEFINED_COLOUR('white');
#32=FACE_BOUND('',#137,.T.);
#33=FACE_BOUND('',#138,.T.);
#34=FACE_BOUND('',#139,.T.);
#35=FACE_BOUND('',#140,.T.);
#36=FACE_BOUND('',#141,.T.);
#37=FACE_BOUND('',#142,.T.);
#38=FACE_BOUND('',#143,.T.);
#39=FACE_BOUND('',#144,.T.);
#40=PRESENTATION_LAYER_ASSIGNMENT('1','Layer 1',(#56,#57));
#41=STYLED_ITEM('',(#43),#56);
#42=STYLED_ITEM('',(#44),#57);
#43=PRESENTATION_STYLE_ASSIGNMENT((#45));
#44=PRESENTATION_STYLE_ASSIGNMENT((#46));
#45=SURFACE_STYLE_USAGE(.BOTH.,#47);
#46=SURFACE_STYLE_USAGE(.BOTH.,#48);
#47=SURFACE_SIDE_STYLE('',(#49));
#48=SURFACE_SIDE_STYLE('',(#50));
#49=SURFACE_STYLE_FILL_AREA(#51);
#50=SURFACE_STYLE_FILL_AREA(#52);
#51=FILL_AREA_STYLE('',(#53));
#52=FILL_AREA_STYLE('',(#54));
#53=FILL_AREA_STYLE_COLOUR('',#55);
#54=FILL_AREA_STYLE_COLOUR('',#31);
#55=COLOUR_RGB('Medium Gray',0.490196078431373,0.490196078431373,0.490196078431373);
#56=MANIFOLD_SOLID_BREP('S\X\D3LIDO1',#58);
#57=MANIFOLD_SOLID_BREP('S\X\D3LIDO1',#59);
#58=CLOSED_SHELL('',(#73,#74,#75,#76,#77,#78,#79,#80,#81,#82,#83,#84,#85,
#86,#87));
#59=CLOSED_SHELL('',(#88,#89,#90,#91));
#60=CYLINDRICAL_SURFACE('',#356,7.6);
#61=CYLINDRICAL_SURFACE('',#362,7.94000000000004);
#62=CYLINDRICAL_SURFACE('',#369,3.175);
#63=CYLINDRICAL_SURFACE('',#372,7.94);
#64=B_SPLINE_CURVE_WITH_KNOTS('',3,(#505,#506,#507,#508,#509,#510,#511,
#512,#513,#514),.UNSPECIFIED.,.F.,.F.,(4,2,2,2,4),(0.,0.25,0.5,0.75,1.),
 .UNSPECIFIED.);
#65=B_SPLINE_CURVE_WITH_KNOTS('',3,(#535,#536,#537,#538,#539,#540,#541,
#542,#543,#544),.UNSPECIFIED.,.F.,.F.,(4,2,2,2,4),(0.,0.25,0.5,0.75,1.),
 .UNSPECIFIED.);
#66=ELLIPSE('',#355,7.68395644205795,7.6);
#67=CIRCLE('',#350,7.94000000000004);
#68=CIRCLE('',#361,7.94000000000004);
#69=CIRCLE('',#367,3.175);
#70=CIRCLE('',#368,3.175);
#71=CIRCLE('',#370,7.94);
#72=CIRCLE('',#371,7.94);
#73=ADVANCED_FACE('',(#107),#92,.F.);
#74=ADVANCED_FACE('',(#108),#93,.T.);
#75=ADVANCED_FACE('',(#109),#94,.T.);
#76=ADVANCED_FACE('',(#110),#95,.T.);
#77=ADVANCED_FACE('',(#111),#96,.T.);
#78=ADVANCED_FACE('',(#112),#60,.T.);
#79=ADVANCED_FACE('',(#113),#97,.T.);
#80=ADVANCED_FACE('',(#114),#98,.F.);
#81=ADVANCED_FACE('',(#115),#99,.F.);
#82=ADVANCED_FACE('',(#116),#100,.F.);
#83=ADVANCED_FACE('',(#117),#61,.F.);
#84=ADVANCED_FACE('',(#118),#101,.F.);
#85=ADVANCED_FACE('',(#119),#102,.F.);
#86=ADVANCED_FACE('',(#120),#103,.T.);
#87=ADVANCED_FACE('',(#121),#104,.F.);
#88=ADVANCED_FACE('',(#32,#33),#62,.F.);
#89=ADVANCED_FACE('',(#34,#35),#63,.T.);
#90=ADVANCED_FACE('',(#36,#37),#105,.F.);
#91=ADVANCED_FACE('',(#38,#39),#106,.T.);
#92=PLANE('',#349);
#93=PLANE('',#351);
#94=PLANE('',#352);
#95=PLANE('',#353);
#96=PLANE('',#354);
#97=PLANE('',#357);
#98=PLANE('',#358);
#99=PLANE('',#359);
#100=PLANE('',#360);
#101=PLANE('',#363);
#102=PLANE('',#364);
#103=PLANE('',#365);
#104=PLANE('',#366);
#105=PLANE('',#373);
#106=PLANE('',#374);
#107=FACE_OUTER_BOUND('',#122,.T.);
#108=FACE_OUTER_BOUND('',#123,.T.);
#109=FACE_OUTER_BOUND('',#124,.T.);
#110=FACE_OUTER_BOUND('',#125,.T.);
#111=FACE_OUTER_BOUND('',#126,.T.);
#112=FACE_OUTER_BOUND('',#127,.T.);
#113=FACE_OUTER_BOUND('',#128,.T.);
#114=FACE_OUTER_BOUND('',#129,.T.);
#115=FACE_OUTER_BOUND('',#130,.T.);
#116=FACE_OUTER_BOUND('',#131,.T.);
#117=FACE_OUTER_BOUND('',#132,.T.);
#118=FACE_OUTER_BOUND('',#133,.T.);
#119=FACE_OUTER_BOUND('',#134,.T.);
#120=FACE_OUTER_BOUND('',#135,.T.);
#121=FACE_OUTER_BOUND('',#136,.T.);
#122=EDGE_LOOP('',(#145,#146,#147,#148));
#123=EDGE_LOOP('',(#149,#150,#151,#152,#153,#154));
#124=EDGE_LOOP('',(#155,#156,#157,#158));
#125=EDGE_LOOP('',(#159,#160,#161,#162));
#126=EDGE_LOOP('',(#163,#164,#165,#166,#167,#168));
#127=EDGE_LOOP('',(#169,#170,#171,#172));
#128=EDGE_LOOP('',(#173,#174,#175,#176,#177,#178,#179));
#129=EDGE_LOOP('',(#180,#181,#182,#183,#184));
#130=EDGE_LOOP('',(#185,#186,#187,#188,#189,#190,#191));
#131=EDGE_LOOP('',(#192,#193,#194,#195,#196));
#132=EDGE_LOOP('',(#197,#198,#199,#200));
#133=EDGE_LOOP('',(#201,#202,#203,#204));
#134=EDGE_LOOP('',(#205,#206,#207,#208));
#135=EDGE_LOOP('',(#209,#210,#211,#212));
#136=EDGE_LOOP('',(#213,#214));
#137=EDGE_LOOP('',(#215));
#138=EDGE_LOOP('',(#216));
#139=EDGE_LOOP('',(#217));
#140=EDGE_LOOP('',(#218));
#141=EDGE_LOOP('',(#219));
#142=EDGE_LOOP('',(#220));
#143=EDGE_LOOP('',(#221));
#144=EDGE_LOOP('',(#222));
#145=ORIENTED_EDGE('',*,*,#249,.F.);
#146=ORIENTED_EDGE('',*,*,#250,.F.);
#147=ORIENTED_EDGE('',*,*,#251,.F.);
#148=ORIENTED_EDGE('',*,*,#252,.T.);
#149=ORIENTED_EDGE('',*,*,#253,.F.);
#150=ORIENTED_EDGE('',*,*,#254,.T.);
#151=ORIENTED_EDGE('',*,*,#255,.T.);
#152=ORIENTED_EDGE('',*,*,#256,.F.);
#153=ORIENTED_EDGE('',*,*,#257,.F.);
#154=ORIENTED_EDGE('',*,*,#258,.F.);
#155=ORIENTED_EDGE('',*,*,#259,.T.);
#156=ORIENTED_EDGE('',*,*,#253,.T.);
#157=ORIENTED_EDGE('',*,*,#260,.T.);
#158=ORIENTED_EDGE('',*,*,#261,.T.);
#159=ORIENTED_EDGE('',*,*,#259,.F.);
#160=ORIENTED_EDGE('',*,*,#262,.T.);
#161=ORIENTED_EDGE('',*,*,#263,.T.);
#162=ORIENTED_EDGE('',*,*,#254,.F.);
#163=ORIENTED_EDGE('',*,*,#264,.T.);
#164=ORIENTED_EDGE('',*,*,#265,.T.);
#165=ORIENTED_EDGE('',*,*,#266,.F.);
#166=ORIENTED_EDGE('',*,*,#267,.T.);
#167=ORIENTED_EDGE('',*,*,#268,.T.);
#168=ORIENTED_EDGE('',*,*,#256,.T.);
#169=ORIENTED_EDGE('',*,*,#269,.T.);
#170=ORIENTED_EDGE('',*,*,#270,.F.);
#171=ORIENTED_EDGE('',*,*,#271,.T.);
#172=ORIENTED_EDGE('',*,*,#266,.T.);
#173=ORIENTED_EDGE('',*,*,#260,.F.);
#174=ORIENTED_EDGE('',*,*,#258,.T.);
#175=ORIENTED_EDGE('',*,*,#272,.T.);
#176=ORIENTED_EDGE('',*,*,#273,.T.);
#177=ORIENTED_EDGE('',*,*,#270,.T.);
#178=ORIENTED_EDGE('',*,*,#274,.T.);
#179=ORIENTED_EDGE('',*,*,#275,.T.);
#180=ORIENTED_EDGE('',*,*,#264,.F.);
#181=ORIENTED_EDGE('',*,*,#255,.F.);
#182=ORIENTED_EDGE('',*,*,#263,.F.);
#183=ORIENTED_EDGE('',*,*,#249,.T.);
#184=ORIENTED_EDGE('',*,*,#276,.F.);
#185=ORIENTED_EDGE('',*,*,#265,.F.);
#186=ORIENTED_EDGE('',*,*,#276,.T.);
#187=ORIENTED_EDGE('',*,*,#252,.F.);
#188=ORIENTED_EDGE('',*,*,#277,.F.);
#189=ORIENTED_EDGE('',*,*,#278,.T.);
#190=ORIENTED_EDGE('',*,*,#274,.F.);
#191=ORIENTED_EDGE('',*,*,#269,.F.);
#192=ORIENTED_EDGE('',*,*,#261,.F.);
#193=ORIENTED_EDGE('',*,*,#275,.F.);
#194=ORIENTED_EDGE('',*,*,#278,.F.);
#195=ORIENTED_EDGE('',*,*,#279,.F.);
#196=ORIENTED_EDGE('',*,*,#280,.T.);
#197=ORIENTED_EDGE('',*,*,#268,.F.);
#198=ORIENTED_EDGE('',*,*,#281,.F.);
#199=ORIENTED_EDGE('',*,*,#272,.F.);
#200=ORIENTED_EDGE('',*,*,#257,.T.);
#201=ORIENTED_EDGE('',*,*,#267,.F.);
#202=ORIENTED_EDGE('',*,*,#282,.F.);
#203=ORIENTED_EDGE('',*,*,#273,.F.);
#204=ORIENTED_EDGE('',*,*,#281,.T.);
#205=ORIENTED_EDGE('',*,*,#262,.F.);
#206=ORIENTED_EDGE('',*,*,#280,.F.);
#207=ORIENTED_EDGE('',*,*,#283,.F.);
#208=ORIENTED_EDGE('',*,*,#250,.T.);
#209=ORIENTED_EDGE('',*,*,#251,.T.);
#210=ORIENTED_EDGE('',*,*,#283,.T.);
#211=ORIENTED_EDGE('',*,*,#279,.T.);
#212=ORIENTED_EDGE('',*,*,#277,.T.);
#213=ORIENTED_EDGE('',*,*,#282,.T.);
#214=ORIENTED_EDGE('',*,*,#271,.F.);
#215=ORIENTED_EDGE('',*,*,#284,.T.);
#216=ORIENTED_EDGE('',*,*,#285,.T.);
#217=ORIENTED_EDGE('',*,*,#286,.T.);
#218=ORIENTED_EDGE('',*,*,#287,.T.);
#219=ORIENTED_EDGE('',*,*,#286,.F.);
#220=ORIENTED_EDGE('',*,*,#284,.F.);
#221=ORIENTED_EDGE('',*,*,#287,.F.);
#222=ORIENTED_EDGE('',*,*,#285,.F.);
#223=VERTEX_POINT('',#461);
#224=VERTEX_POINT('',#462);
#225=VERTEX_POINT('',#464);
#226=VERTEX_POINT('',#466);
#227=VERTEX_POINT('',#470);
#228=VERTEX_POINT('',#471);
#229=VERTEX_POINT('',#473);
#230=VERTEX_POINT('',#475);
#231=VERTEX_POINT('',#477);
#232=VERTEX_POINT('',#479);
#233=VERTEX_POINT('',#483);
#234=VERTEX_POINT('',#485);
#235=VERTEX_POINT('',#492);
#236=VERTEX_POINT('',#494);
#237=VERTEX_POINT('',#496);
#238=VERTEX_POINT('',#498);
#239=VERTEX_POINT('',#502);
#240=VERTEX_POINT('',#504);
#241=VERTEX_POINT('',#517);
#242=VERTEX_POINT('',#520);
#243=VERTEX_POINT('',#526);
#244=VERTEX_POINT('',#530);
#245=VERTEX_POINT('',#551);
#246=VERTEX_POINT('',#553);
#247=VERTEX_POINT('',#556);
#248=VERTEX_POINT('',#558);
#249=EDGE_CURVE('',#223,#224,#288,.T.);
#250=EDGE_CURVE('',#225,#223,#289,.T.);
#251=EDGE_CURVE('',#226,#225,#290,.T.);
#252=EDGE_CURVE('',#226,#224,#291,.T.);
#253=EDGE_CURVE('',#227,#228,#292,.T.);
#254=EDGE_CURVE('',#227,#229,#293,.T.);
#255=EDGE_CURVE('',#229,#230,#294,.T.);
#256=EDGE_CURVE('',#231,#230,#295,.T.);
#257=EDGE_CURVE('',#232,#231,#67,.T.);
#258=EDGE_CURVE('',#228,#232,#296,.T.);
#259=EDGE_CURVE('',#233,#227,#297,.T.);
#260=EDGE_CURVE('',#228,#234,#298,.T.);
#261=EDGE_CURVE('',#234,#233,#299,.T.);
#262=EDGE_CURVE('',#233,#223,#300,.T.);
#263=EDGE_CURVE('',#223,#229,#301,.T.);
#264=EDGE_CURVE('',#230,#235,#302,.T.);
#265=EDGE_CURVE('',#235,#236,#303,.T.);
#266=EDGE_CURVE('',#237,#236,#304,.T.);
#267=EDGE_CURVE('',#237,#238,#305,.T.);
#268=EDGE_CURVE('',#238,#231,#306,.T.);
#269=EDGE_CURVE('',#236,#239,#66,.T.);
#270=EDGE_CURVE('',#240,#239,#307,.T.);
#271=EDGE_CURVE('',#240,#237,#64,.T.);
#272=EDGE_CURVE('',#232,#241,#308,.T.);
#273=EDGE_CURVE('',#241,#240,#309,.T.);
#274=EDGE_CURVE('',#239,#242,#310,.T.);
#275=EDGE_CURVE('',#242,#234,#311,.T.);
#276=EDGE_CURVE('',#235,#224,#312,.T.);
#277=EDGE_CURVE('',#243,#226,#313,.T.);
#278=EDGE_CURVE('',#243,#242,#314,.T.);
#279=EDGE_CURVE('',#244,#243,#315,.T.);
#280=EDGE_CURVE('',#244,#233,#316,.T.);
#281=EDGE_CURVE('',#241,#238,#68,.T.);
#282=EDGE_CURVE('',#240,#237,#65,.T.);
#283=EDGE_CURVE('',#225,#244,#317,.T.);
#284=EDGE_CURVE('',#245,#245,#69,.T.);
#285=EDGE_CURVE('',#246,#246,#70,.T.);
#286=EDGE_CURVE('',#247,#247,#71,.T.);
#287=EDGE_CURVE('',#248,#248,#72,.T.);
#288=LINE('',#460,#318);
#289=LINE('',#463,#319);
#290=LINE('',#465,#320);
#291=LINE('',#467,#321);
#292=LINE('',#469,#322);
#293=LINE('',#472,#323);
#294=LINE('',#474,#324);
#295=LINE('',#476,#325);
#296=LINE('',#480,#326);
#297=LINE('',#482,#327);
#298=LINE('',#484,#328);
#299=LINE('',#486,#329);
#300=LINE('',#488,#330);
#301=LINE('',#489,#331);
#302=LINE('',#491,#332);
#303=LINE('',#493,#333);
#304=LINE('',#495,#334);
#305=LINE('',#497,#335);
#306=LINE('',#499,#336);
#307=LINE('',#503,#337);
#308=LINE('',#516,#338);
#309=LINE('',#518,#339);
#310=LINE('',#519,#340);
#311=LINE('',#521,#341);
#312=LINE('',#523,#342);
#313=LINE('',#525,#343);
#314=LINE('',#527,#344);
#315=LINE('',#529,#345);
#316=LINE('',#531,#346);
#317=LINE('',#546,#347);
#318=VECTOR('',#377,1.);
#319=VECTOR('',#378,1.);
#320=VECTOR('',#379,1.);
#321=VECTOR('',#380,1.);
#322=VECTOR('',#383,1.);
#323=VECTOR('',#384,1.);
#324=VECTOR('',#385,1.);
#325=VECTOR('',#386,1.);
#326=VECTOR('',#389,1.);
#327=VECTOR('',#392,1.);
#328=VECTOR('',#393,1.);
#329=VECTOR('',#394,1.);
#330=VECTOR('',#397,1.);
#331=VECTOR('',#398,1.);
#332=VECTOR('',#401,1.);
#333=VECTOR('',#402,1.);
#334=VECTOR('',#403,1.);
#335=VECTOR('',#404,1.);
#336=VECTOR('',#405,1.);
#337=VECTOR('',#410,1.);
#338=VECTOR('',#413,1.);
#339=VECTOR('',#414,1.);
#340=VECTOR('',#415,1.);
#341=VECTOR('',#416,1.);
#342=VECTOR('',#419,1.);
#343=VECTOR('',#422,1.);
#344=VECTOR('',#423,1.);
#345=VECTOR('',#426,1.);
#346=VECTOR('',#427,1.);
#347=VECTOR('',#436,1.);
#348=AXIS2_PLACEMENT_3D('',#459,#375,#376);
#349=AXIS2_PLACEMENT_3D('',#468,#381,#382);
#350=AXIS2_PLACEMENT_3D('',#478,#387,#388);
#351=AXIS2_PLACEMENT_3D('',#481,#390,#391);
#352=AXIS2_PLACEMENT_3D('',#487,#395,#396);
#353=AXIS2_PLACEMENT_3D('',#490,#399,#400);
#354=AXIS2_PLACEMENT_3D('',#500,#406,#407);
#355=AXIS2_PLACEMENT_3D('',#501,#408,#409);
#356=AXIS2_PLACEMENT_3D('',#515,#411,#412);
#357=AXIS2_PLACEMENT_3D('',#522,#417,#418);
#358=AXIS2_PLACEMENT_3D('',#524,#420,#421);
#359=AXIS2_PLACEMENT_3D('',#528,#424,#425);
#360=AXIS2_PLACEMENT_3D('',#532,#428,#429);
#361=AXIS2_PLACEMENT_3D('',#533,#430,#431);
#362=AXIS2_PLACEMENT_3D('',#534,#432,#433);
#363=AXIS2_PLACEMENT_3D('',#545,#434,#435);
#364=AXIS2_PLACEMENT_3D('',#547,#437,#438);
#365=AXIS2_PLACEMENT_3D('',#548,#439,#440);
#366=AXIS2_PLACEMENT_3D('',#549,#441,#442);
#367=AXIS2_PLACEMENT_3D('',#550,#443,#444);
#368=AXIS2_PLACEMENT_3D('',#552,#445,#446);
#369=AXIS2_PLACEMENT_3D('',#554,#447,#448);
#370=AXIS2_PLACEMENT_3D('',#555,#449,#450);
#371=AXIS2_PLACEMENT_3D('',#557,#451,#452);
#372=AXIS2_PLACEMENT_3D('',#559,#453,#454);
#373=AXIS2_PLACEMENT_3D('',#560,#455,#456);
#374=AXIS2_PLACEMENT_3D('',#561,#457,#458);
#375=DIRECTION('',(0.,0.,1.));
#376=DIRECTION('',(1.,0.,0.));
#377=DIRECTION('',(0.,-1.,0.));
#378=DIRECTION('',(0.,0.,-1.));
#379=DIRECTION('',(0.,1.,0.));
#380=DIRECTION('',(0.,0.,-1.));
#381=DIRECTION('',(-1.,0.,0.));
#382=DIRECTION('',(0.,0.,-1.));
#383=DIRECTION('',(-0.09476908586501,-0.09476908586501,-0.990978123234121));
#384=DIRECTION('',(0.994448124012469,-0.101642427537945,0.027235006375531));
#385=DIRECTION('',(0.958002877900994,-0.127818619425424,-0.256696097480255));
#386=DIRECTION('',(-0.075793672324847,0.112670517886335,0.990737439302028));
#387=DIRECTION('',(0.10395584540888,0.989073800366903,-0.104528463267654));
#388=DIRECTION('',(0.994521895368273,-0.104528463267654,0.));
#389=DIRECTION('',(0.695507186400243,-0.147420668436166,-0.703233176253404));
#390=DIRECTION('',(0.10395584540888,0.989073800366903,-0.104528463267654));
#391=DIRECTION('',(6.93889390390723E-18,0.105097892765719,0.994461881087559));
#392=DIRECTION('',(0.694746590606866,0.694746590606865,-0.186156787897387));
#393=DIRECTION('',(-0.57534679389965,-0.575346793899649,0.581336506249855));
#394=DIRECTION('',(0.,0.,1.));
#395=DIRECTION('',(-0.707106781186547,0.707106781186548,0.));
#396=DIRECTION('',(-0.707106781186548,-0.707106781186547,0.));
#397=DIRECTION('',(1.,0.,0.));
#398=DIRECTION('',(0.694746590606868,0.694746590606864,-0.186156787897387));
#399=DIRECTION('',(0.,0.258819045102521,0.965925826289068));
#400=DIRECTION('',(0.,-0.965925826289068,0.258819045102521));
#401=DIRECTION('',(-0.09766302562333,-0.994875434944834,0.026168728846151));
#402=DIRECTION('',(0.087072685308103,0.,-0.996201961187206));
#403=DIRECTION('',(-0.10395584540888,-0.989073800366903,0.104528463267654));
#404=DIRECTION('',(-0.075793672324847,0.112670517886335,0.990737439302028));
#405=DIRECTION('',(0.10395584540888,0.989073800366903,-0.104528463267652));
#406=DIRECTION('',(0.991689720346459,-0.095070351987343,0.086678294469631));
#407=DIRECTION('',(0.0757936723248476,-0.112670517886335,-0.990737439302028));
#408=DIRECTION('',(0.,1.,0.));
#409=DIRECTION('',(0.705161999394272,0.,-0.709046228824519));
#410=DIRECTION('',(-0.10395584540888,-0.989073800366903,0.104528463267654));
#411=DIRECTION('',(0.10395584540888,0.989073800366903,-0.104528463267654));
#412=DIRECTION('',(-0.994521895368273,0.104528463267654,0.));
#413=DIRECTION('',(-0.10395584540888,-0.989073800366903,0.104528463267652));
#414=DIRECTION('',(0.695507186400244,-0.147420668436166,-0.703233176253404));
#415=DIRECTION('',(-0.703233233899406,0.,0.710959224385888));
#416=DIRECTION('',(0.,0.999999834243344,0.000575771902585));
#417=DIRECTION('',(-0.710959166106565,0.000404901970968,-0.703233176253404));
#418=DIRECTION('',(-0.695507186400243,0.147420668436166,0.703233176253404));
#419=DIRECTION('',(-0.965925826289067,0.,0.258819045102526));
#420=DIRECTION('',(-0.258819045102519,0.,-0.965925826289069));
#421=DIRECTION('',(0.,1.,0.));
#422=DIRECTION('',(1.,0.,0.));
#423=DIRECTION('',(0.,0.,-1.));
#424=DIRECTION('',(0.,1.,0.));
#425=DIRECTION('',(0.,0.,1.));
#426=DIRECTION('',(0.,-1.,0.));
#427=DIRECTION('',(0.,0.,-1.));
#428=DIRECTION('',(1.,0.,0.));
#429=DIRECTION('',(0.,0.,1.));
#430=DIRECTION('',(0.10395584540888,0.989073800366903,-0.104528463267654));
#431=DIRECTION('',(0.994521895368274,-0.104528463267654,0.));
#432=DIRECTION('',(0.10395584540888,0.989073800366903,-0.104528463267653));
#433=DIRECTION('',(-0.994521895368273,0.104528463267654,0.));
#434=DIRECTION('',(-0.10395584540888,-0.989073800366903,0.104528463267654));
#435=DIRECTION('',(-6.93889390390723E-18,-0.105097892765719,-0.994461881087559));
#436=DIRECTION('',(-1.,0.,0.));
#437=DIRECTION('',(0.,-1.,0.));
#438=DIRECTION('',(0.,0.,-1.));
#439=DIRECTION('',(0.,0.,1.));
#440=DIRECTION('',(0.,-1.,0.));
#441=DIRECTION('',(-0.10395584540888,-0.989073800366903,0.104528463267653));
#442=DIRECTION('',(0.0930895006405994,-0.114312564043747,-0.989073800366903));
#443=DIRECTION('',(-0.10395584540888,-0.989073800366903,0.104528463267653));
#444=DIRECTION('',(-0.994521895368274,0.104528463267654,0.));
#445=DIRECTION('',(0.10395584540888,0.989073800366903,-0.104528463267653));
#446=DIRECTION('',(-0.994521895368274,0.104528463267653,0.));
#447=DIRECTION('',(0.10395584540888,0.989073800366903,-0.104528463267653));
#448=DIRECTION('',(0.994521895368274,-0.104528463267653,0.));
#449=DIRECTION('',(0.10395584540888,0.989073800366903,-0.104528463267653));
#450=DIRECTION('',(-0.994521895368274,0.104528463267654,0.));
#451=DIRECTION('',(-0.10395584540888,-0.989073800366903,0.104528463267653));
#452=DIRECTION('',(-0.994521895368274,0.104528463267654,0.));
#453=DIRECTION('',(0.10395584540888,0.989073800366903,-0.104528463267653));
#454=DIRECTION('',(0.994521895368274,-0.104528463267654,0.));
#455=DIRECTION('',(0.10395584540888,0.989073800366903,-0.104528463267653));
#456=DIRECTION('',(0.010926199633097,0.10395584540888,0.994521895368273));
#457=DIRECTION('',(0.10395584540888,0.989073800366903,-0.104528463267653));
#458=DIRECTION('',(0.010926199633097,0.10395584540888,0.994521895368273));
#459=CARTESIAN_POINT('',(0.,0.,0.));
#460=CARTESIAN_POINT('',(25.,32.,-136.));
#461=CARTESIAN_POINT('',(25.,32.,-136.));
#462=CARTESIAN_POINT('',(25.,0.,-136.));
#463=CARTESIAN_POINT('',(25.,32.,0.));
#464=CARTESIAN_POINT('',(25.,32.,0.));
#465=CARTESIAN_POINT('',(25.,0.,0.));
#466=CARTESIAN_POINT('',(25.,0.,0.));
#467=CARTESIAN_POINT('',(25.,0.,0.));
#468=CARTESIAN_POINT('',(25.,32.,0.));
#469=CARTESIAN_POINT('',(4.875199359065,36.875199359065,-137.306305731202));
#470=CARTESIAN_POINT('',(4.875199359065,36.875199359065,-137.306305731202));
#471=CARTESIAN_POINT('',(3.46615207582503,35.466152075825,-152.040382983802));
#472=CARTESIAN_POINT('',(4.87519935906499,36.875199359065,-137.306305731202));
#473=CARTESIAN_POINT('',(27.5569048670139,34.5569048670139,-136.68512059424));
#474=CARTESIAN_POINT('',(27.5569048670139,34.5569048670139,-136.68512059424));
#475=CARTESIAN_POINT('',(30.1658204620027,34.2088182409282,-137.384177421038));
#476=CARTESIAN_POINT('',(31.8626219122658,31.6864507096118,-159.563927686108));
#477=CARTESIAN_POINT('',(31.8626219122659,31.6864507096117,-159.563927686108));
#478=CARTESIAN_POINT('',(24.5,32.15,-162.5));
#479=CARTESIAN_POINT('',(17.4980117638956,32.4919396232919,-166.228114541625));
#480=CARTESIAN_POINT('',(3.46615207582503,35.466152075825,-152.040382983802));
#481=CARTESIAN_POINT('',(15.3801267570766,34.1523984202981,-152.622731645071));
#482=CARTESIAN_POINT('',(3.46944695195361E-15,32.,-136.));
#483=CARTESIAN_POINT('',(0.,32.,-136.));
#484=CARTESIAN_POINT('',(3.46615207582502,35.466152075825,-152.040382983802));
#485=CARTESIAN_POINT('',(0.,32.,-148.538146142899));
#486=CARTESIAN_POINT('',(0.,32.,-148.538146142899));
#487=CARTESIAN_POINT('',(-6.77993288647468,25.2200671135253,0.));
#488=CARTESIAN_POINT('',(0.,32.,-136.));
#489=CARTESIAN_POINT('',(25.,32.,-136.));
#490=CARTESIAN_POINT('',(34.,41.7124705299373,-138.602448635008));
#491=CARTESIAN_POINT('',(30.1658204620027,34.2088182409282,-137.384177421038));
#492=CARTESIAN_POINT('',(26.8076747333439,0.,-136.484364984978));
#493=CARTESIAN_POINT('',(26.8076747333439,2.220446E-15,-136.484364984978));
#494=CARTESIAN_POINT('',(28.7336821653213,0.,-158.519890525597));
#495=CARTESIAN_POINT('',(30.8818924321404,20.4388554028199,-160.679933735127));
#496=CARTESIAN_POINT('',(31.3765045697639,25.1425871823373,-161.179610612364));
#497=CARTESIAN_POINT('',(31.3756826978326,25.1369559545627,-161.176443935648));
#498=CARTESIAN_POINT('',(31.2014627354654,25.3959413392782,-158.899126659726));
#499=CARTESIAN_POINT('',(31.2014627354654,25.3959413392783,-158.899126659726));
#500=CARTESIAN_POINT('',(32.0368418746331,31.4274653248962,-161.841244962031));
#501=CARTESIAN_POINT('',(21.1208988362085,0.,-159.102285802325));
#502=CARTESIAN_POINT('',(15.7172857412673,0.,-164.446532727763));
#503=CARTESIAN_POINT('',(17.9417608950975,21.1644673329031,-166.683260912622));
#504=CARTESIAN_POINT('',(18.4333510315363,25.8705853228968,-167.178024154047));
#505=CARTESIAN_POINT('',(18.4329464404399,25.8732313406959,-167.177129066319));
#506=CARTESIAN_POINT('',(19.5086572977974,25.6450617455685,-168.266307395643));
#507=CARTESIAN_POINT('',(20.928359796902,25.4171659538719,-169.01078771062));
#508=CARTESIAN_POINT('',(23.9539135595664,25.0424782735282,-169.547194417153));
#509=CARTESIAN_POINT('',(25.5528630987251,24.896541101508,-169.337897187665));
#510=CARTESIAN_POINT('',(28.357912972395,24.7390657679362,-168.038283664756));
#511=CARTESIAN_POINT('',(29.5576145836712,24.7278868303277,-166.950931977177));
#512=CARTESIAN_POINT('',(31.1273022523156,24.84459792921,-164.285494353504));
#513=CARTESIAN_POINT('',(31.4937076257711,24.9722217308551,-162.713488664971));
#514=CARTESIAN_POINT('',(31.3769163004623,25.1465576403161,-161.180031321954));
#515=CARTESIAN_POINT('',(24.5,32.15,-162.5));
#516=CARTESIAN_POINT('',(17.4980117638956,32.4919396232919,-166.228114541625));
#517=CARTESIAN_POINT('',(16.8368525870951,26.2014302529584,-165.563313515243));
#518=CARTESIAN_POINT('',(16.8368525870951,26.2014302529584,-165.563313515243));
#519=CARTESIAN_POINT('',(15.7172857412673,0.,-164.446532727763));
#520=CARTESIAN_POINT('',(0.,0.,-148.556570846835));
#521=CARTESIAN_POINT('',(0.,3.552714E-15,-148.556570846835));
#522=CARTESIAN_POINT('',(-9.00458146877715,38.1094660644983,-139.431119223105));
#523=CARTESIAN_POINT('',(26.8076747333439,0.,-136.484364984978));
#524=CARTESIAN_POINT('',(25.,32.,-136.));
#525=CARTESIAN_POINT('',(0.,0.,0.));
#526=CARTESIAN_POINT('',(0.,0.,0.));
#527=CARTESIAN_POINT('',(0.,0.,0.));
#528=CARTESIAN_POINT('',(25.,0.,0.));
#529=CARTESIAN_POINT('',(0.,32.,0.));
#530=CARTESIAN_POINT('',(0.,32.,0.));
#531=CARTESIAN_POINT('',(0.,32.,0.));
#532=CARTESIAN_POINT('',(0.,0.,0.));
#533=CARTESIAN_POINT('',(23.8388408231995,25.8594906296665,-161.835198973618));
#534=CARTESIAN_POINT('',(24.5,32.15,-162.5));
#535=CARTESIAN_POINT('',(18.4323033177268,25.8732316145774,-167.177766074405));
#536=CARTESIAN_POINT('',(16.743867731383,26.2308616702241,-165.47296946785));
#537=CARTESIAN_POINT('',(15.9619515317665,26.5849240579234,-162.900377626429));
#538=CARTESIAN_POINT('',(16.8570121085359,26.9928125052522,-158.150680365461));
#539=CARTESIAN_POINT('',(18.5169881344378,27.0445688628038,-156.010066590103));
#540=CARTESIAN_POINT('',(22.9333664530941,26.7973586877222,-153.957044593075));
#541=CARTESIAN_POINT('',(25.6219860397372,26.5012517721721,-154.08498936283));
#542=CARTESIAN_POINT('',(29.759674393602,25.8118937056511,-156.492841769103));
#543=CARTESIAN_POINT('',(31.1901472366669,25.4231606754585,-158.748491899171));
#544=CARTESIAN_POINT('',(31.3769694203509,25.1465525497231,-161.180026661493));
#545=CARTESIAN_POINT('',(23.8388408231995,25.8594906296665,-161.835198973618));
#546=CARTESIAN_POINT('',(25.,32.,0.));
#547=CARTESIAN_POINT('',(0.,32.,0.));
#548=CARTESIAN_POINT('',(12.5,16.,0.));
#549=CARTESIAN_POINT('',(23.8398803816536,25.8693813676702,-161.83624425825));
#550=CARTESIAN_POINT('',(23.8398803816536,25.8693813676702,-161.83624425825));
#551=CARTESIAN_POINT('',(26.9974873994479,25.5375034967954,-161.83624425825));
#552=CARTESIAN_POINT('',(24.5,32.15,-162.5));
#553=CARTESIAN_POINT('',(27.6576070177943,31.8181221291252,-162.5));
#554=CARTESIAN_POINT('',(24.5,32.15,-162.5));
#555=CARTESIAN_POINT('',(23.8398803816536,25.8693813676702,-161.83624425825));
#556=CARTESIAN_POINT('',(31.7363842308777,25.039425369325,-161.83624425825));
#557=CARTESIAN_POINT('',(24.5,32.15,-162.5));
#558=CARTESIAN_POINT('',(32.3965038492241,31.3200440016548,-162.5));
#559=CARTESIAN_POINT('',(24.5,32.15,-162.5));
#560=CARTESIAN_POINT('',(23.8398803816536,25.8693813676702,-161.83624425825));
#561=CARTESIAN_POINT('',(24.5,32.15,-162.5));
#562=MECHANICAL_DESIGN_GEOMETRIC_PRESENTATION_REPRESENTATION('',(#41,#42),
#563);
#563=(
GEOMETRIC_REPRESENTATION_CONTEXT(3)
GLOBAL_UNCERTAINTY_ASSIGNED_CONTEXT((#564))
GLOBAL_UNIT_ASSIGNED_CONTEXT((#570,#566,#565))
REPRESENTATION_CONTEXT('PRSNL3225P15_SIM','TOP_LEVEL_ASSEMBLY_PART')
);
#564=UNCERTAINTY_MEASURE_WITH_UNIT(LENGTH_MEASURE(0.0508),#570,
'DISTANCE_ACCURACY_VALUE','Maximum Tolerance applied to model');
#565=(
NAMED_UNIT(*)
SI_UNIT($,.STERADIAN.)
SOLID_ANGLE_UNIT()
);
#566=(
CONVERSION_BASED_UNIT('DEGREE',#568)
NAMED_UNIT(#567)
PLANE_ANGLE_UNIT()
);
#567=DIMENSIONAL_EXPONENTS(0.,0.,0.,0.,0.,0.,0.);
#568=PLANE_ANGLE_MEASURE_WITH_UNIT(PLANE_ANGLE_MEASURE(0.0174532925),#569);
#569=(
NAMED_UNIT(*)
PLANE_ANGLE_UNIT()
SI_UNIT($,.RADIAN.)
);
#570=(
LENGTH_UNIT()
NAMED_UNIT(*)
SI_UNIT(.MILLI.,.METRE.)
);
ENDSEC;
END-ISO-10303-21;
