ISO-10303-21;
HEADER;
/* Generated by software containing ST-Developer
 * from STEP Tools, Inc. (www.steptools.com) 
 */
/* OPTION: using custom schema-name function */

FILE_DESCRIPTION(
/* description */ (''),
/* implementation_level */ '2;1');

FILE_NAME(
/* name */ 'PRSCL4040S16_SIM.stp',
/* time_stamp */ '2023-02-20T07:25:12+01:00',
/* author */ (''),
/* organization */ (''),
/* preprocessor_version */ 'ST-DEVELOPER v16.7',
/* originating_system */ 'SIEMENS PLM Software NX 12.0',
/* authorisation */ '');

FILE_SCHEMA (('AUTOMOTIVE_DESIGN { 1 0 10303 214 3 1 1 1 }'));
ENDSEC;

DATA;
#10=PROPERTY_DEFINITION_REPRESENTATION(#14,#12);
#11=PROPERTY_DEFINITION_REPRESENTATION(#15,#13);
#12=REPRESENTATION('',(#16),#664);
#13=REPRESENTATION('',(#17),#664);
#14=PROPERTY_DEFINITION('pmi validation property','',#21);
#15=PROPERTY_DEFINITION('pmi validation property','',#21);
#16=VALUE_REPRESENTATION_ITEM('number of annotations',COUNT_MEASURE(0.));
#17=VALUE_REPRESENTATION_ITEM('number of views',COUNT_MEASURE(0.));
#18=SHAPE_REPRESENTATION_RELATIONSHIP('None',
'relationship between kl620838BAE7d6yc-None and kl620838BAE7d6yc-None',
#30,#19);
#19=ADVANCED_BREP_SHAPE_REPRESENTATION('kl620838BAE7d6yc-None',(#117,#32),
#664);
#20=SHAPE_DEFINITION_REPRESENTATION(#21,#30);
#21=PRODUCT_DEFINITION_SHAPE('','',#22);
#22=PRODUCT_DEFINITION(' ','',#24,#23);
#23=PRODUCT_DEFINITION_CONTEXT('part definition',#29,'design');
#24=PRODUCT_DEFINITION_FORMATION_WITH_SPECIFIED_SOURCE(' ',' ',#26,
 .NOT_KNOWN.);
#25=PRODUCT_RELATED_PRODUCT_CATEGORY('part','',(#26));
#26=PRODUCT('kl620838BAE7d6yc','kl620838BAE7d6yc',' ',(#27));
#27=PRODUCT_CONTEXT(' ',#29,'mechanical');
#28=APPLICATION_PROTOCOL_DEFINITION('international standard',
'automotive_design',2010,#29);
#29=APPLICATION_CONTEXT(
'core data for automotive mechanical design processes');
#30=SHAPE_REPRESENTATION('kl620838BAE7d6yc-None',(#408),#664);
#31=COLOUR_RGB('Medium Gray',0.490196078431373,0.490196078431373,0.490196078431373);
#32=BREP_WITH_VOIDS('PRSCR4040S20',#119,(#33));
#33=ORIENTED_CLOSED_SHELL('',*,#120,.F.);
#34=LINE('',#583,#61);
#35=LINE('',#588,#62);
#36=LINE('',#592,#63);
#37=LINE('',#594,#64);
#38=LINE('',#598,#65);
#39=LINE('',#602,#66);
#40=LINE('',#604,#67);
#41=LINE('',#606,#68);
#42=LINE('',#608,#69);
#43=LINE('',#613,#70);
#44=LINE('',#617,#71);
#45=LINE('',#619,#72);
#46=LINE('',#620,#73);
#47=LINE('',#622,#74);
#48=LINE('',#624,#75);
#49=LINE('',#626,#76);
#50=LINE('',#628,#77);
#51=LINE('',#630,#78);
#52=LINE('',#632,#79);
#53=LINE('',#634,#80);
#54=LINE('',#636,#81);
#55=LINE('',#638,#82);
#56=LINE('',#640,#83);
#57=LINE('',#642,#84);
#58=LINE('',#644,#85);
#59=LINE('',#646,#86);
#60=LINE('',#648,#87);
#61=VECTOR('',#480,1.);
#62=VECTOR('',#483,1.);
#63=VECTOR('',#488,1.);
#64=VECTOR('',#489,1.);
#65=VECTOR('',#494,1.);
#66=VECTOR('',#497,1.);
#67=VECTOR('',#500,1.);
#68=VECTOR('',#501,1.);
#69=VECTOR('',#502,1.);
#70=VECTOR('',#507,1.);
#71=VECTOR('',#510,1.);
#72=VECTOR('',#513,1.);
#73=VECTOR('',#514,1.);
#74=VECTOR('',#517,1.);
#75=VECTOR('',#518,1.);
#76=VECTOR('',#519,1.);
#77=VECTOR('',#522,1.);
#78=VECTOR('',#523,1.);
#79=VECTOR('',#524,1.);
#80=VECTOR('',#527,1.);
#81=VECTOR('',#528,1.);
#82=VECTOR('',#529,1.);
#83=VECTOR('',#532,1.);
#84=VECTOR('',#533,1.);
#85=VECTOR('',#536,1.);
#86=VECTOR('',#537,1.);
#87=VECTOR('',#540,1.);
#88=FACE_OUTER_BOUND('',#199,.T.);
#89=FACE_OUTER_BOUND('',#206,.T.);
#90=FACE_OUTER_BOUND('',#207,.T.);
#91=FACE_OUTER_BOUND('',#208,.T.);
#92=FACE_OUTER_BOUND('',#209,.T.);
#93=FACE_OUTER_BOUND('',#210,.T.);
#94=FACE_OUTER_BOUND('',#211,.T.);
#95=FACE_OUTER_BOUND('',#212,.T.);
#96=FACE_OUTER_BOUND('',#213,.T.);
#97=FACE_OUTER_BOUND('',#214,.T.);
#98=FACE_OUTER_BOUND('',#215,.T.);
#99=FACE_OUTER_BOUND('',#216,.T.);
#100=FACE_OUTER_BOUND('',#217,.T.);
#101=PRESENTATION_LAYER_ASSIGNMENT('1','Layer 1',(#117,#32));
#102=STYLED_ITEM('',(#104),#117);
#103=STYLED_ITEM('',(#105),#32);
#104=PRESENTATION_STYLE_ASSIGNMENT((#106));
#105=PRESENTATION_STYLE_ASSIGNMENT((#107));
#106=SURFACE_STYLE_USAGE(.BOTH.,#108);
#107=SURFACE_STYLE_USAGE(.BOTH.,#109);
#108=SURFACE_SIDE_STYLE('',(#110));
#109=SURFACE_SIDE_STYLE('',(#111));
#110=SURFACE_STYLE_FILL_AREA(#112);
#111=SURFACE_STYLE_FILL_AREA(#113);
#112=FILL_AREA_STYLE('',(#114));
#113=FILL_AREA_STYLE('',(#115));
#114=FILL_AREA_STYLE_COLOUR('',#116);
#115=FILL_AREA_STYLE_COLOUR('',#31);
#116=DRAUGHTING_PRE_DEFINED_COLOUR('white');
#117=MANIFOLD_SOLID_BREP('INSERT',#118);
#118=CLOSED_SHELL('',(#132,#133,#134,#135));
#119=CLOSED_SHELL('',(#136,#137,#138,#139,#140,#141,#142,#143,#144,#145,
#146,#147,#148,#149,#150,#151));
#120=CLOSED_SHELL('',(#152,#153,#154,#155));
#121=CONICAL_SURFACE('',#415,7.61015901913328,6.99999999999999);
#122=CONICAL_SURFACE('',#421,6.525,45.0000000000001);
#123=CONICAL_SURFACE('',#444,2.25,60.);
#124=CONICAL_SURFACE('',#448,2.25,60.);
#125=CYLINDRICAL_SURFACE('',#413,2.7);
#126=CYLINDRICAL_SURFACE('',#422,6.775);
#127=CYLINDRICAL_SURFACE('',#427,7.99999999999996);
#128=CYLINDRICAL_SURFACE('',#429,6.625);
#129=CYLINDRICAL_SURFACE('',#433,20.);
#130=CYLINDRICAL_SURFACE('',#446,1.5);
#131=CYLINDRICAL_SURFACE('',#449,2.99999999999999);
#132=ADVANCED_FACE('',(#169,#170),#156,.F.);
#133=ADVANCED_FACE('',(#171,#172),#125,.F.);
#134=ADVANCED_FACE('',(#173,#174),#121,.T.);
#135=ADVANCED_FACE('',(#175,#176),#157,.F.);
#136=ADVANCED_FACE('',(#88),#158,.F.);
#137=ADVANCED_FACE('',(#177,#178),#122,.T.);
#138=ADVANCED_FACE('',(#179,#180),#126,.T.);
#139=ADVANCED_FACE('',(#181,#182),#159,.F.);
#140=ADVANCED_FACE('',(#89),#127,.F.);
#141=ADVANCED_FACE('',(#90),#128,.T.);
#142=ADVANCED_FACE('',(#91),#160,.T.);
#143=ADVANCED_FACE('',(#92),#129,.F.);
#144=ADVANCED_FACE('',(#93),#161,.T.);
#145=ADVANCED_FACE('',(#94),#162,.T.);
#146=ADVANCED_FACE('',(#95),#163,.F.);
#147=ADVANCED_FACE('',(#96),#164,.T.);
#148=ADVANCED_FACE('',(#97),#165,.F.);
#149=ADVANCED_FACE('',(#98),#166,.F.);
#150=ADVANCED_FACE('',(#99),#167,.F.);
#151=ADVANCED_FACE('',(#100),#168,.F.);
#152=ADVANCED_FACE('',(#183,#184),#123,.F.);
#153=ADVANCED_FACE('',(#185,#186),#130,.F.);
#154=ADVANCED_FACE('',(#187,#188),#124,.F.);
#155=ADVANCED_FACE('',(#189,#190),#131,.T.);
#156=PLANE('',#411);
#157=PLANE('',#416);
#158=PLANE('',#418);
#159=PLANE('',#425);
#160=PLANE('',#430);
#161=PLANE('',#434);
#162=PLANE('',#435);
#163=PLANE('',#436);
#164=PLANE('',#437);
#165=PLANE('',#438);
#166=PLANE('',#439);
#167=PLANE('',#440);
#168=PLANE('',#441);
#169=FACE_BOUND('',#191,.T.);
#170=FACE_BOUND('',#192,.T.);
#171=FACE_BOUND('',#193,.T.);
#172=FACE_BOUND('',#194,.T.);
#173=FACE_BOUND('',#195,.T.);
#174=FACE_BOUND('',#196,.T.);
#175=FACE_BOUND('',#197,.T.);
#176=FACE_BOUND('',#198,.T.);
#177=FACE_BOUND('',#200,.T.);
#178=FACE_BOUND('',#201,.T.);
#179=FACE_BOUND('',#202,.T.);
#180=FACE_BOUND('',#203,.T.);
#181=FACE_BOUND('',#204,.T.);
#182=FACE_BOUND('',#205,.T.);
#183=FACE_BOUND('',#218,.F.);
#184=FACE_BOUND('',#219,.F.);
#185=FACE_BOUND('',#220,.F.);
#186=FACE_BOUND('',#221,.F.);
#187=FACE_BOUND('',#222,.F.);
#188=FACE_BOUND('',#223,.F.);
#189=FACE_BOUND('',#224,.F.);
#190=FACE_BOUND('',#225,.F.);
#191=EDGE_LOOP('',(#226));
#192=EDGE_LOOP('',(#227));
#193=EDGE_LOOP('',(#228));
#194=EDGE_LOOP('',(#229));
#195=EDGE_LOOP('',(#230));
#196=EDGE_LOOP('',(#231));
#197=EDGE_LOOP('',(#232));
#198=EDGE_LOOP('',(#233));
#199=EDGE_LOOP('',(#234));
#200=EDGE_LOOP('',(#235));
#201=EDGE_LOOP('',(#236));
#202=EDGE_LOOP('',(#237));
#203=EDGE_LOOP('',(#238));
#204=EDGE_LOOP('',(#239,#240,#241,#242));
#205=EDGE_LOOP('',(#243));
#206=EDGE_LOOP('',(#244,#245,#246,#247));
#207=EDGE_LOOP('',(#248,#249,#250,#251));
#208=EDGE_LOOP('',(#252,#253,#254,#255,#256,#257));
#209=EDGE_LOOP('',(#258,#259,#260,#261));
#210=EDGE_LOOP('',(#262,#263,#264,#265,#266,#267));
#211=EDGE_LOOP('',(#268,#269,#270,#271));
#212=EDGE_LOOP('',(#272,#273,#274,#275));
#213=EDGE_LOOP('',(#276,#277,#278,#279,#280,#281,#282,#283,#284));
#214=EDGE_LOOP('',(#285,#286,#287,#288));
#215=EDGE_LOOP('',(#289,#290,#291,#292));
#216=EDGE_LOOP('',(#293,#294,#295,#296));
#217=EDGE_LOOP('',(#297,#298,#299,#300,#301,#302,#303,#304,#305));
#218=EDGE_LOOP('',(#306));
#219=EDGE_LOOP('',(#307));
#220=EDGE_LOOP('',(#308));
#221=EDGE_LOOP('',(#309));
#222=EDGE_LOOP('',(#310));
#223=EDGE_LOOP('',(#311));
#224=EDGE_LOOP('',(#312));
#225=EDGE_LOOP('',(#313));
#226=ORIENTED_EDGE('',*,*,#347,.T.);
#227=ORIENTED_EDGE('',*,*,#348,.T.);
#228=ORIENTED_EDGE('',*,*,#349,.F.);
#229=ORIENTED_EDGE('',*,*,#348,.F.);
#230=ORIENTED_EDGE('',*,*,#350,.T.);
#231=ORIENTED_EDGE('',*,*,#347,.F.);
#232=ORIENTED_EDGE('',*,*,#350,.F.);
#233=ORIENTED_EDGE('',*,*,#349,.T.);
#234=ORIENTED_EDGE('',*,*,#351,.F.);
#235=ORIENTED_EDGE('',*,*,#352,.T.);
#236=ORIENTED_EDGE('',*,*,#353,.T.);
#237=ORIENTED_EDGE('',*,*,#351,.T.);
#238=ORIENTED_EDGE('',*,*,#352,.F.);
#239=ORIENTED_EDGE('',*,*,#354,.T.);
#240=ORIENTED_EDGE('',*,*,#355,.T.);
#241=ORIENTED_EDGE('',*,*,#356,.T.);
#242=ORIENTED_EDGE('',*,*,#357,.T.);
#243=ORIENTED_EDGE('',*,*,#353,.F.);
#244=ORIENTED_EDGE('',*,*,#358,.T.);
#245=ORIENTED_EDGE('',*,*,#357,.F.);
#246=ORIENTED_EDGE('',*,*,#359,.T.);
#247=ORIENTED_EDGE('',*,*,#360,.T.);
#248=ORIENTED_EDGE('',*,*,#355,.F.);
#249=ORIENTED_EDGE('',*,*,#361,.T.);
#250=ORIENTED_EDGE('',*,*,#362,.T.);
#251=ORIENTED_EDGE('',*,*,#363,.F.);
#252=ORIENTED_EDGE('',*,*,#356,.F.);
#253=ORIENTED_EDGE('',*,*,#363,.T.);
#254=ORIENTED_EDGE('',*,*,#364,.T.);
#255=ORIENTED_EDGE('',*,*,#365,.T.);
#256=ORIENTED_EDGE('',*,*,#366,.T.);
#257=ORIENTED_EDGE('',*,*,#359,.F.);
#258=ORIENTED_EDGE('',*,*,#367,.T.);
#259=ORIENTED_EDGE('',*,*,#368,.F.);
#260=ORIENTED_EDGE('',*,*,#369,.T.);
#261=ORIENTED_EDGE('',*,*,#370,.T.);
#262=ORIENTED_EDGE('',*,*,#354,.F.);
#263=ORIENTED_EDGE('',*,*,#358,.F.);
#264=ORIENTED_EDGE('',*,*,#371,.T.);
#265=ORIENTED_EDGE('',*,*,#368,.T.);
#266=ORIENTED_EDGE('',*,*,#372,.T.);
#267=ORIENTED_EDGE('',*,*,#361,.F.);
#268=ORIENTED_EDGE('',*,*,#373,.T.);
#269=ORIENTED_EDGE('',*,*,#370,.F.);
#270=ORIENTED_EDGE('',*,*,#374,.T.);
#271=ORIENTED_EDGE('',*,*,#375,.T.);
#272=ORIENTED_EDGE('',*,*,#365,.F.);
#273=ORIENTED_EDGE('',*,*,#376,.F.);
#274=ORIENTED_EDGE('',*,*,#377,.T.);
#275=ORIENTED_EDGE('',*,*,#378,.T.);
#276=ORIENTED_EDGE('',*,*,#360,.F.);
#277=ORIENTED_EDGE('',*,*,#366,.F.);
#278=ORIENTED_EDGE('',*,*,#378,.F.);
#279=ORIENTED_EDGE('',*,*,#379,.F.);
#280=ORIENTED_EDGE('',*,*,#380,.F.);
#281=ORIENTED_EDGE('',*,*,#381,.F.);
#282=ORIENTED_EDGE('',*,*,#374,.F.);
#283=ORIENTED_EDGE('',*,*,#369,.F.);
#284=ORIENTED_EDGE('',*,*,#371,.F.);
#285=ORIENTED_EDGE('',*,*,#382,.F.);
#286=ORIENTED_EDGE('',*,*,#383,.T.);
#287=ORIENTED_EDGE('',*,*,#379,.T.);
#288=ORIENTED_EDGE('',*,*,#377,.F.);
#289=ORIENTED_EDGE('',*,*,#384,.F.);
#290=ORIENTED_EDGE('',*,*,#385,.T.);
#291=ORIENTED_EDGE('',*,*,#380,.T.);
#292=ORIENTED_EDGE('',*,*,#383,.F.);
#293=ORIENTED_EDGE('',*,*,#375,.F.);
#294=ORIENTED_EDGE('',*,*,#381,.T.);
#295=ORIENTED_EDGE('',*,*,#385,.F.);
#296=ORIENTED_EDGE('',*,*,#386,.F.);
#297=ORIENTED_EDGE('',*,*,#364,.F.);
#298=ORIENTED_EDGE('',*,*,#362,.F.);
#299=ORIENTED_EDGE('',*,*,#372,.F.);
#300=ORIENTED_EDGE('',*,*,#367,.F.);
#301=ORIENTED_EDGE('',*,*,#373,.F.);
#302=ORIENTED_EDGE('',*,*,#386,.T.);
#303=ORIENTED_EDGE('',*,*,#384,.T.);
#304=ORIENTED_EDGE('',*,*,#382,.T.);
#305=ORIENTED_EDGE('',*,*,#376,.T.);
#306=ORIENTED_EDGE('',*,*,#387,.F.);
#307=ORIENTED_EDGE('',*,*,#388,.F.);
#308=ORIENTED_EDGE('',*,*,#389,.F.);
#309=ORIENTED_EDGE('',*,*,#387,.T.);
#310=ORIENTED_EDGE('',*,*,#390,.F.);
#311=ORIENTED_EDGE('',*,*,#389,.T.);
#312=ORIENTED_EDGE('',*,*,#388,.T.);
#313=ORIENTED_EDGE('',*,*,#390,.T.);
#314=VERTEX_POINT('',#563);
#315=VERTEX_POINT('',#565);
#316=VERTEX_POINT('',#568);
#317=VERTEX_POINT('',#571);
#318=VERTEX_POINT('',#575);
#319=VERTEX_POINT('',#578);
#320=VERTEX_POINT('',#580);
#321=VERTEX_POINT('',#584);
#322=VERTEX_POINT('',#585);
#323=VERTEX_POINT('',#587);
#324=VERTEX_POINT('',#589);
#325=VERTEX_POINT('',#593);
#326=VERTEX_POINT('',#595);
#327=VERTEX_POINT('',#599);
#328=VERTEX_POINT('',#601);
#329=VERTEX_POINT('',#605);
#330=VERTEX_POINT('',#607);
#331=VERTEX_POINT('',#611);
#332=VERTEX_POINT('',#612);
#333=VERTEX_POINT('',#614);
#334=VERTEX_POINT('',#616);
#335=VERTEX_POINT('',#623);
#336=VERTEX_POINT('',#625);
#337=VERTEX_POINT('',#629);
#338=VERTEX_POINT('',#631);
#339=VERTEX_POINT('',#635);
#340=VERTEX_POINT('',#637);
#341=VERTEX_POINT('',#641);
#342=VERTEX_POINT('',#645);
#343=VERTEX_POINT('',#652);
#344=VERTEX_POINT('',#654);
#345=VERTEX_POINT('',#657);
#346=VERTEX_POINT('',#660);
#347=EDGE_CURVE('',#314,#314,#391,.T.);
#348=EDGE_CURVE('',#315,#315,#392,.T.);
#349=EDGE_CURVE('',#316,#316,#393,.T.);
#350=EDGE_CURVE('',#317,#317,#394,.T.);
#351=EDGE_CURVE('',#318,#318,#395,.T.);
#352=EDGE_CURVE('',#319,#319,#396,.T.);
#353=EDGE_CURVE('',#320,#320,#397,.T.);
#354=EDGE_CURVE('',#321,#322,#34,.T.);
#355=EDGE_CURVE('',#322,#323,#398,.T.);
#356=EDGE_CURVE('',#323,#324,#35,.T.);
#357=EDGE_CURVE('',#324,#321,#399,.T.);
#358=EDGE_CURVE('',#325,#321,#36,.T.);
#359=EDGE_CURVE('',#324,#326,#37,.T.);
#360=EDGE_CURVE('',#326,#325,#400,.T.);
#361=EDGE_CURVE('',#322,#327,#38,.T.);
#362=EDGE_CURVE('',#327,#328,#401,.T.);
#363=EDGE_CURVE('',#323,#328,#39,.T.);
#364=EDGE_CURVE('',#328,#329,#40,.T.);
#365=EDGE_CURVE('',#329,#330,#41,.T.);
#366=EDGE_CURVE('',#330,#326,#42,.T.);
#367=EDGE_CURVE('',#331,#332,#402,.T.);
#368=EDGE_CURVE('',#333,#332,#43,.T.);
#369=EDGE_CURVE('',#333,#334,#403,.T.);
#370=EDGE_CURVE('',#334,#331,#44,.T.);
#371=EDGE_CURVE('',#325,#333,#45,.T.);
#372=EDGE_CURVE('',#332,#327,#46,.T.);
#373=EDGE_CURVE('',#335,#331,#47,.T.);
#374=EDGE_CURVE('',#334,#336,#48,.T.);
#375=EDGE_CURVE('',#336,#335,#49,.T.);
#376=EDGE_CURVE('',#337,#329,#50,.T.);
#377=EDGE_CURVE('',#337,#338,#51,.T.);
#378=EDGE_CURVE('',#338,#330,#52,.T.);
#379=EDGE_CURVE('',#339,#338,#53,.T.);
#380=EDGE_CURVE('',#340,#339,#54,.T.);
#381=EDGE_CURVE('',#336,#340,#55,.T.);
#382=EDGE_CURVE('',#341,#337,#56,.T.);
#383=EDGE_CURVE('',#341,#339,#57,.T.);
#384=EDGE_CURVE('',#342,#341,#58,.T.);
#385=EDGE_CURVE('',#342,#340,#59,.T.);
#386=EDGE_CURVE('',#335,#342,#60,.T.);
#387=EDGE_CURVE('',#343,#343,#404,.T.);
#388=EDGE_CURVE('',#344,#344,#405,.T.);
#389=EDGE_CURVE('',#345,#345,#406,.T.);
#390=EDGE_CURVE('',#346,#346,#407,.T.);
#391=CIRCLE('',#409,8.);
#392=CIRCLE('',#410,2.7);
#393=CIRCLE('',#412,2.7);
#394=CIRCLE('',#414,7.22031803826656);
#395=CIRCLE('',#417,6.775);
#396=CIRCLE('',#419,6.775);
#397=CIRCLE('',#420,6.27499999999998);
#398=CIRCLE('',#423,6.625);
#399=CIRCLE('',#424,7.99999999999996);
#400=CIRCLE('',#426,7.99999999999996);
#401=CIRCLE('',#428,6.625);
#402=CIRCLE('',#431,20.);
#403=CIRCLE('',#432,20.);
#404=CIRCLE('',#442,1.5);
#405=CIRCLE('',#443,2.99999999999999);
#406=CIRCLE('',#445,1.5);
#407=CIRCLE('',#447,2.99999999999999);
#408=AXIS2_PLACEMENT_3D('',#561,#450,#451);
#409=AXIS2_PLACEMENT_3D('',#562,#452,#453);
#410=AXIS2_PLACEMENT_3D('',#564,#454,#455);
#411=AXIS2_PLACEMENT_3D('',#566,#456,#457);
#412=AXIS2_PLACEMENT_3D('',#567,#458,#459);
#413=AXIS2_PLACEMENT_3D('',#569,#460,#461);
#414=AXIS2_PLACEMENT_3D('',#570,#462,#463);
#415=AXIS2_PLACEMENT_3D('',#572,#464,#465);
#416=AXIS2_PLACEMENT_3D('',#573,#466,#467);
#417=AXIS2_PLACEMENT_3D('',#574,#468,#469);
#418=AXIS2_PLACEMENT_3D('',#576,#470,#471);
#419=AXIS2_PLACEMENT_3D('',#577,#472,#473);
#420=AXIS2_PLACEMENT_3D('',#579,#474,#475);
#421=AXIS2_PLACEMENT_3D('',#581,#476,#477);
#422=AXIS2_PLACEMENT_3D('',#582,#478,#479);
#423=AXIS2_PLACEMENT_3D('',#586,#481,#482);
#424=AXIS2_PLACEMENT_3D('',#590,#484,#485);
#425=AXIS2_PLACEMENT_3D('',#591,#486,#487);
#426=AXIS2_PLACEMENT_3D('',#596,#490,#491);
#427=AXIS2_PLACEMENT_3D('',#597,#492,#493);
#428=AXIS2_PLACEMENT_3D('',#600,#495,#496);
#429=AXIS2_PLACEMENT_3D('',#603,#498,#499);
#430=AXIS2_PLACEMENT_3D('',#609,#503,#504);
#431=AXIS2_PLACEMENT_3D('',#610,#505,#506);
#432=AXIS2_PLACEMENT_3D('',#615,#508,#509);
#433=AXIS2_PLACEMENT_3D('',#618,#511,#512);
#434=AXIS2_PLACEMENT_3D('',#621,#515,#516);
#435=AXIS2_PLACEMENT_3D('',#627,#520,#521);
#436=AXIS2_PLACEMENT_3D('',#633,#525,#526);
#437=AXIS2_PLACEMENT_3D('',#639,#530,#531);
#438=AXIS2_PLACEMENT_3D('',#643,#534,#535);
#439=AXIS2_PLACEMENT_3D('',#647,#538,#539);
#440=AXIS2_PLACEMENT_3D('',#649,#541,#542);
#441=AXIS2_PLACEMENT_3D('',#650,#543,#544);
#442=AXIS2_PLACEMENT_3D('',#651,#545,#546);
#443=AXIS2_PLACEMENT_3D('',#653,#547,#548);
#444=AXIS2_PLACEMENT_3D('',#655,#549,#550);
#445=AXIS2_PLACEMENT_3D('',#656,#551,#552);
#446=AXIS2_PLACEMENT_3D('',#658,#553,#554);
#447=AXIS2_PLACEMENT_3D('',#659,#555,#556);
#448=AXIS2_PLACEMENT_3D('',#661,#557,#558);
#449=AXIS2_PLACEMENT_3D('',#662,#559,#560);
#450=DIRECTION('',(0.,0.,1.));
#451=DIRECTION('',(1.,0.,0.));
#452=DIRECTION('',(0.,1.,0.));
#453=DIRECTION('',(-0.959999201510885,0.,0.280002737662443));
#454=DIRECTION('',(0.,-1.,0.));
#455=DIRECTION('',(0.,0.,-1.));
#456=DIRECTION('',(0.,-1.,0.));
#457=DIRECTION('',(0.,0.,1.));
#458=DIRECTION('',(0.,1.,0.));
#459=DIRECTION('',(-0.959999201510885,0.,0.280002737662445));
#460=DIRECTION('',(0.,1.,0.));
#461=DIRECTION('',(0.959999201510885,0.,-0.280002737662445));
#462=DIRECTION('',(0.,1.,0.));
#463=DIRECTION('',(-0.959999201510885,0.,0.280002737662443));
#464=DIRECTION('',(0.,1.,0.));
#465=DIRECTION('',(0.959999201510885,7.98217969415014E-16,-0.280002737662444));
#466=DIRECTION('',(0.,1.,0.));
#467=DIRECTION('',(0.,0.,-1.));
#468=DIRECTION('',(0.,-1.,0.));
#469=DIRECTION('',(0.805583431736035,0.,-0.592482349536587));
#470=DIRECTION('',(0.,-1.,0.));
#471=DIRECTION('',(0.,0.,1.));
#472=DIRECTION('',(0.,-1.,0.));
#473=DIRECTION('',(0.805583431736035,0.,-0.592482349536587));
#474=DIRECTION('',(0.,1.,0.));
#475=DIRECTION('',(0.805583431736035,0.,-0.592482349536586));
#476=DIRECTION('',(0.,1.,0.));
#477=DIRECTION('',(-0.805583431736035,-6.89391113375943E-17,0.592482349536586));
#478=DIRECTION('',(0.,-1.,0.));
#479=DIRECTION('',(-0.805583431736035,0.,0.592482349536587));
#480=DIRECTION('',(0.499999999999996,0.,-0.866025403784441));
#481=DIRECTION('',(0.,1.,0.));
#482=DIRECTION('',(0.500000000000003,0.,0.866025403784439));
#483=DIRECTION('',(-0.866025403784441,0.,0.499999999999996));
#484=DIRECTION('',(0.,1.,0.));
#485=DIRECTION('',(-1.,0.,0.));
#486=DIRECTION('',(0.,-1.,0.));
#487=DIRECTION('',(0.,0.,1.));
#488=DIRECTION('',(0.,-1.,0.));
#489=DIRECTION('',(0.,1.,0.));
#490=DIRECTION('',(0.,1.,0.));
#491=DIRECTION('',(-1.,0.,0.));
#492=DIRECTION('',(0.,1.,0.));
#493=DIRECTION('',(1.,0.,0.));
#494=DIRECTION('',(0.,-1.,0.));
#495=DIRECTION('',(0.,1.,0.));
#496=DIRECTION('',(0.500000000000003,0.,0.866025403784439));
#497=DIRECTION('',(0.,-1.,0.));
#498=DIRECTION('',(0.,1.,0.));
#499=DIRECTION('',(-0.500000000000002,0.,-0.866025403784438));
#500=DIRECTION('',(-0.866025403784437,0.,0.500000000000002));
#501=DIRECTION('',(0.,1.,0.));
#502=DIRECTION('',(0.866025403784438,0.,-0.500000000000001));
#503=DIRECTION('',(-0.500000000000002,0.,-0.866025403784438));
#504=DIRECTION('',(0.866025403784438,0.,-0.500000000000002));
#505=DIRECTION('',(0.,-1.,0.));
#506=DIRECTION('',(-1.,0.,0.));
#507=DIRECTION('',(0.,-1.,0.));
#508=DIRECTION('',(0.,1.,0.));
#509=DIRECTION('',(-1.,0.,0.));
#510=DIRECTION('',(0.,-1.,0.));
#511=DIRECTION('',(0.,1.,0.));
#512=DIRECTION('',(1.,0.,0.));
#513=DIRECTION('',(-0.499999999999997,0.,0.86602540378444));
#514=DIRECTION('',(0.499999999999999,0.,-0.866025403784439));
#515=DIRECTION('',(0.86602540378444,0.,0.499999999999998));
#516=DIRECTION('',(-0.499999999999998,0.,0.86602540378444));
#517=DIRECTION('',(0.,0.,-1.));
#518=DIRECTION('',(0.,0.,1.));
#519=DIRECTION('',(0.,-1.,0.));
#520=DIRECTION('',(1.,0.,0.));
#521=DIRECTION('',(0.,0.,1.));
#522=DIRECTION('',(0.,0.,-1.));
#523=DIRECTION('',(0.,1.,0.));
#524=DIRECTION('',(0.,0.,-1.));
#525=DIRECTION('',(1.,0.,0.));
#526=DIRECTION('',(0.,0.,1.));
#527=DIRECTION('',(-1.,0.,0.));
#528=DIRECTION('',(0.,0.,1.));
#529=DIRECTION('',(-0.965925826289065,0.,0.258819045102534));
#530=DIRECTION('',(0.,1.,0.));
#531=DIRECTION('',(0.,0.,-1.));
#532=DIRECTION('',(-1.,0.,0.));
#533=DIRECTION('',(0.,1.,0.));
#534=DIRECTION('',(0.,0.,-1.));
#535=DIRECTION('',(1.,0.,0.));
#536=DIRECTION('',(0.,0.,1.));
#537=DIRECTION('',(0.,1.,0.));
#538=DIRECTION('',(-1.,0.,0.));
#539=DIRECTION('',(0.,0.,-1.));
#540=DIRECTION('',(-0.965925826289065,0.,0.258819045102534));
#541=DIRECTION('',(-0.258819045102521,0.,-0.965925826289068));
#542=DIRECTION('',(0.965925826289068,0.,-0.258819045102521));
#543=DIRECTION('',(0.,1.,0.));
#544=DIRECTION('',(0.,0.,-1.));
#545=DIRECTION('',(0.,1.,0.));
#546=DIRECTION('',(-0.31457818869493,0.,0.949231564581283));
#547=DIRECTION('',(0.,-1.,0.));
#548=DIRECTION('',(-0.999999999999999,0.,0.));
#549=DIRECTION('',(0.,-1.,0.));
#550=DIRECTION('',(0.314578188694931,2.80068239116135E-17,-0.949231564581276));
#551=DIRECTION('',(0.,1.,0.));
#552=DIRECTION('',(-0.314578188694931,0.,0.949231564581284));
#553=DIRECTION('',(0.,-1.,0.));
#554=DIRECTION('',(0.31457818869493,0.,-0.949231564581283));
#555=DIRECTION('',(0.,1.,0.));
#556=DIRECTION('',(-0.999999999999999,0.,0.));
#557=DIRECTION('',(0.,1.,0.));
#558=DIRECTION('',(0.314578188694931,5.60136478232269E-17,-0.949231564581276));
#559=DIRECTION('',(0.,-1.,0.));
#560=DIRECTION('',(0.999999999999999,0.,0.));
#561=CARTESIAN_POINT('',(0.,0.,0.));
#562=CARTESIAN_POINT('',(42.0999999999998,40.,-242.1));
#563=CARTESIAN_POINT('',(34.4200063879127,40.,-239.859978098701));
#564=CARTESIAN_POINT('',(42.0999999999998,40.,-242.1));
#565=CARTESIAN_POINT('',(42.0999999999998,40.,-244.8));
#566=CARTESIAN_POINT('',(36.771081013832,40.,-240.54571547293));
#567=CARTESIAN_POINT('',(42.0999999999998,33.65,-242.1));
#568=CARTESIAN_POINT('',(39.5080021559204,33.65,-241.343992608312));
#569=CARTESIAN_POINT('',(42.0999999999998,36.075,-242.1));
#570=CARTESIAN_POINT('',(42.0999999999998,33.65,-242.1));
#571=CARTESIAN_POINT('',(35.1685004486092,33.65,-240.078291182492));
#572=CARTESIAN_POINT('',(42.0999999999998,36.825,-242.1));
#573=CARTESIAN_POINT('',(37.3382513022648,33.65,-240.711141895402));
#574=CARTESIAN_POINT('',(42.0999999999999,33.65,-242.1));
#575=CARTESIAN_POINT('',(47.5578277500115,33.65,-246.114067918111));
#576=CARTESIAN_POINT('',(46.508534567164,33.65,-245.34234438727));
#577=CARTESIAN_POINT('',(42.0999999999999,29.39,-242.1));
#578=CARTESIAN_POINT('',(47.5578277500115,29.39,-246.114067918111));
#579=CARTESIAN_POINT('',(42.0999999999999,28.89,-242.1));
#580=CARTESIAN_POINT('',(47.1550360341435,28.89,-245.817826743342));
#581=CARTESIAN_POINT('',(42.0999999999999,29.14,-242.1));
#582=CARTESIAN_POINT('',(42.0999999999999,31.52,-242.1));
#583=CARTESIAN_POINT('',(45.5952444107403,28.89,-234.903940904273));
#584=CARTESIAN_POINT('',(45.5952444107403,28.89,-234.903940904273));
#585=CARTESIAN_POINT('',(47.8374183000719,28.89,-238.7875));
#586=CARTESIAN_POINT('',(42.1,28.89,-242.1));
#587=CARTESIAN_POINT('',(38.7875,28.89,-247.837418300072));
#588=CARTESIAN_POINT('',(38.7875,28.89,-247.837418300072));
#589=CARTESIAN_POINT('',(34.9039409042737,28.89,-245.59524441074));
#590=CARTESIAN_POINT('',(42.1,28.89,-242.1));
#591=CARTESIAN_POINT('',(42.1,28.89,-242.1));
#592=CARTESIAN_POINT('',(45.5952444107403,40.,-234.903940904273));
#593=CARTESIAN_POINT('',(45.5952444107403,40.,-234.903940904273));
#594=CARTESIAN_POINT('',(34.9039409042737,28.89,-245.59524441074));
#595=CARTESIAN_POINT('',(34.9039409042737,40.,-245.59524441074));
#596=CARTESIAN_POINT('',(42.1,40.,-242.1));
#597=CARTESIAN_POINT('',(42.1,40.,-242.1));
#598=CARTESIAN_POINT('',(47.8374183000719,28.89,-238.7875));
#599=CARTESIAN_POINT('',(47.8374183000719,0.,-238.7875));
#600=CARTESIAN_POINT('',(42.1,0.,-242.1));
#601=CARTESIAN_POINT('',(38.7875,0.,-247.837418300072));
#602=CARTESIAN_POINT('',(38.7875,28.89,-247.837418300072));
#603=CARTESIAN_POINT('',(42.1,40.,-242.1));
#604=CARTESIAN_POINT('',(38.7874999999999,0.,-247.837418300072));
#605=CARTESIAN_POINT('',(0.,0.,-225.443444733879));
#606=CARTESIAN_POINT('',(0.,0.,-225.443444733879));
#607=CARTESIAN_POINT('',(0.,40.,-225.443444733879));
#608=CARTESIAN_POINT('',(-2.639028E-14,40.,-225.443444733879));
#609=CARTESIAN_POINT('',(-12.365790525093,40.,-218.304052245474));
#610=CARTESIAN_POINT('',(60.05,0.,-219.940311995861));
#611=CARTESIAN_POINT('',(40.05,0.,-219.940311995861));
#612=CARTESIAN_POINT('',(42.7294919243112,0.,-229.940311995861));
#613=CARTESIAN_POINT('',(42.7294919243112,40.,-229.940311995861));
#614=CARTESIAN_POINT('',(42.7294919243112,40.,-229.940311995861));
#615=CARTESIAN_POINT('',(60.05,40.,-219.940311995861));
#616=CARTESIAN_POINT('',(40.05,40.,-219.940311995861));
#617=CARTESIAN_POINT('',(40.05,40.,-219.940311995861));
#618=CARTESIAN_POINT('',(60.05,40.,-219.940311995861));
#619=CARTESIAN_POINT('',(45.5952444107403,40.,-234.903940904273));
#620=CARTESIAN_POINT('',(42.7294919243112,0.,-229.940311995861));
#621=CARTESIAN_POINT('',(47.8374183000719,40.,-238.7875));
#622=CARTESIAN_POINT('',(40.05,0.,-202.513397459622));
#623=CARTESIAN_POINT('',(40.05,0.,-202.513397459622));
#624=CARTESIAN_POINT('',(40.05,40.,-219.940311995861));
#625=CARTESIAN_POINT('',(40.05,40.,-202.513397459622));
#626=CARTESIAN_POINT('',(40.05,40.,-202.513397459622));
#627=CARTESIAN_POINT('',(40.05,40.,-219.940311995861));
#628=CARTESIAN_POINT('',(0.,0.,0.));
#629=CARTESIAN_POINT('',(0.,0.,0.));
#630=CARTESIAN_POINT('',(0.,0.,0.));
#631=CARTESIAN_POINT('',(0.,40.,0.));
#632=CARTESIAN_POINT('',(0.,40.,0.));
#633=CARTESIAN_POINT('',(0.,0.,0.));
#634=CARTESIAN_POINT('',(40.,40.,1.224647E-14));
#635=CARTESIAN_POINT('',(40.,40.,1.224647E-14));
#636=CARTESIAN_POINT('',(40.,40.,-202.5));
#637=CARTESIAN_POINT('',(40.,40.,-202.5));
#638=CARTESIAN_POINT('',(40.05,40.,-202.513397459622));
#639=CARTESIAN_POINT('',(21.4377157808686,40.,-128.19798535164));
#640=CARTESIAN_POINT('',(40.,0.,1.224647E-14));
#641=CARTESIAN_POINT('',(40.,0.,1.224647E-14));
#642=CARTESIAN_POINT('',(40.,0.,1.224647E-14));
#643=CARTESIAN_POINT('',(40.,0.,1.224647E-14));
#644=CARTESIAN_POINT('',(40.,0.,-202.5));
#645=CARTESIAN_POINT('',(40.,0.,-202.5));
#646=CARTESIAN_POINT('',(40.,0.,-202.5));
#647=CARTESIAN_POINT('',(40.,0.,-202.5));
#648=CARTESIAN_POINT('',(40.05,0.,-202.513397459622));
#649=CARTESIAN_POINT('',(49.5,0.,-205.045517328096));
#650=CARTESIAN_POINT('',(21.4377157808686,0.,-128.19798535164));
#651=CARTESIAN_POINT('',(29.8670526854725,33.7339745962156,-229.867052685473));
#652=CARTESIAN_POINT('',(29.3951854024301,33.7339745962156,-228.443205338601));
#653=CARTESIAN_POINT('',(29.8670526854728,32.8679491924311,-229.867052685473));
#654=CARTESIAN_POINT('',(28.9233181193877,32.8679491924311,-227.019357991729));
#655=CARTESIAN_POINT('',(29.8670526854725,33.3009618943234,-229.867052685473));
#656=CARTESIAN_POINT('',(29.8670526854725,35.3339745962156,-229.867052685473));
#657=CARTESIAN_POINT('',(29.3951854024301,35.3339745962156,-228.443205338601));
#658=CARTESIAN_POINT('',(29.8670526854725,34.5339745962156,-229.867052685473));
#659=CARTESIAN_POINT('',(29.8670526854728,36.2,-229.867052685473));
#660=CARTESIAN_POINT('',(28.9233181193877,36.2,-227.019357991729));
#661=CARTESIAN_POINT('',(29.8670526854725,35.7669872981078,-229.867052685473));
#662=CARTESIAN_POINT('',(29.8670526854728,40.,-229.867052685473));
#663=MECHANICAL_DESIGN_GEOMETRIC_PRESENTATION_REPRESENTATION('',(#102,#103),
#664);
#664=(
GEOMETRIC_REPRESENTATION_CONTEXT(3)
GLOBAL_UNCERTAINTY_ASSIGNED_CONTEXT((#665))
GLOBAL_UNIT_ASSIGNED_CONTEXT((#671,#667,#666))
REPRESENTATION_CONTEXT('PRSCL4040S16_SIM','TOP_LEVEL_ASSEMBLY_PART')
);
#665=UNCERTAINTY_MEASURE_WITH_UNIT(LENGTH_MEASURE(2.E-5),#671,
'DISTANCE_ACCURACY_VALUE','Maximum Tolerance applied to model');
#666=(
NAMED_UNIT(*)
SI_UNIT($,.STERADIAN.)
SOLID_ANGLE_UNIT()
);
#667=(
CONVERSION_BASED_UNIT('DEGREE',#669)
NAMED_UNIT(#668)
PLANE_ANGLE_UNIT()
);
#668=DIMENSIONAL_EXPONENTS(0.,0.,0.,0.,0.,0.,0.);
#669=PLANE_ANGLE_MEASURE_WITH_UNIT(PLANE_ANGLE_MEASURE(0.0174532925),#670);
#670=(
NAMED_UNIT(*)
PLANE_ANGLE_UNIT()
SI_UNIT($,.RADIAN.)
);
#671=(
LENGTH_UNIT()
NAMED_UNIT(*)
SI_UNIT(.MILLI.,.METRE.)
);
ENDSEC;
END-ISO-10303-21;
