ISO-10303-21;
HEADER;
/* Generated by software containing ST-Developer
 * from STEP Tools, Inc. (www.steptools.com) 
 */
/* OPTION: using custom schema-name function */

FILE_DESCRIPTION(
/* description */ (''),
/* implementation_level */ '2;1');

FILE_NAME(
/* name */ 'PRSCL3225P16_SIM.stp',
/* time_stamp */ '2023-02-15T14:11:07+01:00',
/* author */ (''),
/* organization */ (''),
/* preprocessor_version */ 'ST-DEVELOPER v16.7',
/* originating_system */ 'SIEMENS PLM Software NX 12.0',
/* authorisation */ '');

FILE_SCHEMA (('AUTOMOTIVE_DESIGN { 1 0 10303 214 3 1 1 1 }'));
ENDSEC;

DATA;
#10=PROPERTY_DEFINITION_REPRESENTATION(#14,#12);
#11=PROPERTY_DEFINITION_REPRESENTATION(#15,#13);
#12=REPRESENTATION('',(#16),#648);
#13=REPRESENTATION('',(#17),#648);
#14=PROPERTY_DEFINITION('pmi validation property','',#21);
#15=PROPERTY_DEFINITION('pmi validation property','',#21);
#16=VALUE_REPRESENTATION_ITEM('number of annotations',COUNT_MEASURE(0.));
#17=VALUE_REPRESENTATION_ITEM('number of views',COUNT_MEASURE(0.));
#18=SHAPE_REPRESENTATION_RELATIONSHIP('None',
'relationship between kl6213503CFA4gw3-None and kl6213503CFA4gw3-None',
#30,#19);
#19=ADVANCED_BREP_SHAPE_REPRESENTATION('kl6213503CFA4gw3-None',(#48,#49),
#648);
#20=SHAPE_DEFINITION_REPRESENTATION(#21,#30);
#21=PRODUCT_DEFINITION_SHAPE('','',#22);
#22=PRODUCT_DEFINITION(' ','',#24,#23);
#23=PRODUCT_DEFINITION_CONTEXT('part definition',#29,'design');
#24=PRODUCT_DEFINITION_FORMATION_WITH_SPECIFIED_SOURCE(' ',' ',#26,
 .NOT_KNOWN.);
#25=PRODUCT_RELATED_PRODUCT_CATEGORY('part','',(#26));
#26=PRODUCT('kl6213503CFA4gw3','kl6213503CFA4gw3',' ',(#27));
#27=PRODUCT_CONTEXT(' ',#29,'mechanical');
#28=APPLICATION_PROTOCOL_DEFINITION('international standard',
'automotive_design',2010,#29);
#29=APPLICATION_CONTEXT(
'core data for automotive mechanical design processes');
#30=SHAPE_REPRESENTATION('kl6213503CFA4gw3-None',(#394),#648);
#31=DRAUGHTING_PRE_DEFINED_COLOUR('white');
#32=PRESENTATION_LAYER_ASSIGNMENT('1','Layer 1',(#48,#49));
#33=STYLED_ITEM('',(#35),#48);
#34=STYLED_ITEM('',(#36),#49);
#35=PRESENTATION_STYLE_ASSIGNMENT((#37));
#36=PRESENTATION_STYLE_ASSIGNMENT((#38));
#37=SURFACE_STYLE_USAGE(.BOTH.,#39);
#38=SURFACE_STYLE_USAGE(.BOTH.,#40);
#39=SURFACE_SIDE_STYLE('',(#41));
#40=SURFACE_SIDE_STYLE('',(#42));
#41=SURFACE_STYLE_FILL_AREA(#43);
#42=SURFACE_STYLE_FILL_AREA(#44);
#43=FILL_AREA_STYLE('',(#45));
#44=FILL_AREA_STYLE('',(#46));
#45=FILL_AREA_STYLE_COLOUR('',#47);
#46=FILL_AREA_STYLE_COLOUR('',#31);
#47=COLOUR_RGB('Medium Gray',0.490196078431373,0.490196078431373,0.490196078431373);
#48=MANIFOLD_SOLID_BREP('S\X\D3LIDO1',#50);
#49=MANIFOLD_SOLID_BREP('S\X\D3LIDO1',#51);
#50=CLOSED_SHELL('',(#72,#73,#74,#75,#76,#77,#78,#79,#80,#81,#82,#83,#84,
#85,#86,#87));
#51=CLOSED_SHELL('',(#88,#89,#90,#91));
#52=FACE_BOUND('',#133,.T.);
#53=FACE_BOUND('',#134,.T.);
#54=FACE_BOUND('',#136,.T.);
#55=FACE_BOUND('',#137,.T.);
#56=FACE_BOUND('',#138,.T.);
#57=FACE_BOUND('',#139,.T.);
#58=FACE_BOUND('',#140,.T.);
#59=FACE_BOUND('',#141,.T.);
#60=FACE_BOUND('',#142,.T.);
#61=FACE_BOUND('',#143,.T.);
#62=CONICAL_SURFACE('',#412,7.99999999999999,6.5);
#63=CONICAL_SURFACE('',#424,6.69402499485953,45.0000000000004);
#64=CONICAL_SURFACE('',#432,7.61015901913328,6.99999999999999);
#65=(
BOUNDED_CURVE()
B_SPLINE_CURVE(2,(#591,#592,#593),.UNSPECIFIED.,.F.,.F.)
B_SPLINE_CURVE_WITH_KNOTS((3,3),(0.,1.),.UNSPECIFIED.)
CURVE()
GEOMETRIC_REPRESENTATION_ITEM()
RATIONAL_B_SPLINE_CURVE((1.,1.00553719484374,1.))
REPRESENTATION_ITEM('')
);
#66=(
BOUNDED_CURVE()
B_SPLINE_CURVE(2,(#607,#608,#609),.UNSPECIFIED.,.F.,.F.)
B_SPLINE_CURVE_WITH_KNOTS((3,3),(0.,1.),.UNSPECIFIED.)
CURVE()
GEOMETRIC_REPRESENTATION_ITEM()
RATIONAL_B_SPLINE_CURVE((1.,1.00553719484389,1.))
REPRESENTATION_ITEM('')
);
#67=CYLINDRICAL_SURFACE('',#399,6.775);
#68=CYLINDRICAL_SURFACE('',#406,6.6);
#69=CYLINDRICAL_SURFACE('',#415,6.);
#70=CYLINDRICAL_SURFACE('',#425,6.775);
#71=CYLINDRICAL_SURFACE('',#430,2.7);
#72=ADVANCED_FACE('',(#104),#92,.T.);
#73=ADVANCED_FACE('',(#105),#67,.F.);
#74=ADVANCED_FACE('',(#106),#93,.F.);
#75=ADVANCED_FACE('',(#107),#94,.F.);
#76=ADVANCED_FACE('',(#108),#68,.T.);
#77=ADVANCED_FACE('',(#109),#95,.T.);
#78=ADVANCED_FACE('',(#110),#96,.T.);
#79=ADVANCED_FACE('',(#111),#62,.F.);
#80=ADVANCED_FACE('',(#112),#97,.T.);
#81=ADVANCED_FACE('',(#113),#69,.F.);
#82=ADVANCED_FACE('',(#114),#98,.F.);
#83=ADVANCED_FACE('',(#115),#99,.F.);
#84=ADVANCED_FACE('',(#116),#100,.T.);
#85=ADVANCED_FACE('',(#117),#101,.F.);
#86=ADVANCED_FACE('',(#52,#53),#63,.T.);
#87=ADVANCED_FACE('',(#118),#70,.T.);
#88=ADVANCED_FACE('',(#54,#55),#102,.F.);
#89=ADVANCED_FACE('',(#56,#57),#71,.F.);
#90=ADVANCED_FACE('',(#58,#59),#64,.T.);
#91=ADVANCED_FACE('',(#60,#61),#103,.F.);
#92=PLANE('',#397);
#93=PLANE('',#400);
#94=PLANE('',#403);
#95=PLANE('',#407);
#96=PLANE('',#411);
#97=PLANE('',#413);
#98=PLANE('',#416);
#99=PLANE('',#417);
#100=PLANE('',#418);
#101=PLANE('',#421);
#102=PLANE('',#428);
#103=PLANE('',#433);
#104=FACE_OUTER_BOUND('',#119,.T.);
#105=FACE_OUTER_BOUND('',#120,.T.);
#106=FACE_OUTER_BOUND('',#121,.T.);
#107=FACE_OUTER_BOUND('',#122,.T.);
#108=FACE_OUTER_BOUND('',#123,.T.);
#109=FACE_OUTER_BOUND('',#124,.T.);
#110=FACE_OUTER_BOUND('',#125,.T.);
#111=FACE_OUTER_BOUND('',#126,.T.);
#112=FACE_OUTER_BOUND('',#127,.T.);
#113=FACE_OUTER_BOUND('',#128,.T.);
#114=FACE_OUTER_BOUND('',#129,.T.);
#115=FACE_OUTER_BOUND('',#130,.T.);
#116=FACE_OUTER_BOUND('',#131,.T.);
#117=FACE_OUTER_BOUND('',#132,.T.);
#118=FACE_OUTER_BOUND('',#135,.T.);
#119=EDGE_LOOP('',(#163,#164,#165,#166));
#120=EDGE_LOOP('',(#167,#168,#169,#170));
#121=EDGE_LOOP('',(#171,#172,#173,#174));
#122=EDGE_LOOP('',(#175,#176,#177,#178,#179,#180,#181));
#123=EDGE_LOOP('',(#182,#183,#184,#185));
#124=EDGE_LOOP('',(#186,#187,#188,#189,#190,#191,#192,#193,#194,#195));
#125=EDGE_LOOP('',(#196,#197,#198,#199,#200));
#126=EDGE_LOOP('',(#201,#202,#203,#204));
#127=EDGE_LOOP('',(#205,#206,#207,#208,#209,#210,#211,#212,#213,#214));
#128=EDGE_LOOP('',(#215,#216,#217,#218));
#129=EDGE_LOOP('',(#219,#220,#221,#222,#223,#224,#225));
#130=EDGE_LOOP('',(#226,#227,#228,#229));
#131=EDGE_LOOP('',(#230,#231,#232,#233));
#132=EDGE_LOOP('',(#234,#235,#236,#237,#238));
#133=EDGE_LOOP('',(#239,#240,#241));
#134=EDGE_LOOP('',(#242,#243,#244));
#135=EDGE_LOOP('',(#245,#246,#247,#248,#249,#250));
#136=EDGE_LOOP('',(#251));
#137=EDGE_LOOP('',(#252));
#138=EDGE_LOOP('',(#253));
#139=EDGE_LOOP('',(#254));
#140=EDGE_LOOP('',(#255));
#141=EDGE_LOOP('',(#256));
#142=EDGE_LOOP('',(#257));
#143=EDGE_LOOP('',(#258));
#144=CIRCLE('',#395,6.61304998971907);
#145=CIRCLE('',#396,6.775);
#146=CIRCLE('',#398,6.775);
#147=CIRCLE('',#401,7.99999999999999);
#148=CIRCLE('',#402,6.);
#149=CIRCLE('',#404,6.6);
#150=CIRCLE('',#405,6.6);
#151=CIRCLE('',#408,6.775);
#152=CIRCLE('',#409,6.775);
#153=CIRCLE('',#410,7.27650888728455);
#154=CIRCLE('',#414,6.);
#155=CIRCLE('',#419,6.61304998971907);
#156=CIRCLE('',#420,6.61304998971907);
#157=CIRCLE('',#422,6.775);
#158=CIRCLE('',#423,6.775);
#159=CIRCLE('',#426,8.);
#160=CIRCLE('',#427,2.7);
#161=CIRCLE('',#429,2.7);
#162=CIRCLE('',#431,7.22031803826656);
#163=ORIENTED_EDGE('',*,*,#292,.T.);
#164=ORIENTED_EDGE('',*,*,#293,.T.);
#165=ORIENTED_EDGE('',*,*,#294,.T.);
#166=ORIENTED_EDGE('',*,*,#295,.F.);
#167=ORIENTED_EDGE('',*,*,#296,.F.);
#168=ORIENTED_EDGE('',*,*,#297,.T.);
#169=ORIENTED_EDGE('',*,*,#295,.T.);
#170=ORIENTED_EDGE('',*,*,#298,.T.);
#171=ORIENTED_EDGE('',*,*,#299,.T.);
#172=ORIENTED_EDGE('',*,*,#300,.T.);
#173=ORIENTED_EDGE('',*,*,#301,.F.);
#174=ORIENTED_EDGE('',*,*,#302,.T.);
#175=ORIENTED_EDGE('',*,*,#303,.F.);
#176=ORIENTED_EDGE('',*,*,#304,.F.);
#177=ORIENTED_EDGE('',*,*,#305,.F.);
#178=ORIENTED_EDGE('',*,*,#306,.T.);
#179=ORIENTED_EDGE('',*,*,#301,.T.);
#180=ORIENTED_EDGE('',*,*,#307,.F.);
#181=ORIENTED_EDGE('',*,*,#308,.F.);
#182=ORIENTED_EDGE('',*,*,#309,.F.);
#183=ORIENTED_EDGE('',*,*,#310,.F.);
#184=ORIENTED_EDGE('',*,*,#311,.T.);
#185=ORIENTED_EDGE('',*,*,#312,.T.);
#186=ORIENTED_EDGE('',*,*,#313,.F.);
#187=ORIENTED_EDGE('',*,*,#312,.F.);
#188=ORIENTED_EDGE('',*,*,#314,.T.);
#189=ORIENTED_EDGE('',*,*,#315,.T.);
#190=ORIENTED_EDGE('',*,*,#304,.T.);
#191=ORIENTED_EDGE('',*,*,#316,.F.);
#192=ORIENTED_EDGE('',*,*,#317,.F.);
#193=ORIENTED_EDGE('',*,*,#318,.F.);
#194=ORIENTED_EDGE('',*,*,#298,.F.);
#195=ORIENTED_EDGE('',*,*,#294,.F.);
#196=ORIENTED_EDGE('',*,*,#319,.T.);
#197=ORIENTED_EDGE('',*,*,#320,.F.);
#198=ORIENTED_EDGE('',*,*,#321,.F.);
#199=ORIENTED_EDGE('',*,*,#317,.T.);
#200=ORIENTED_EDGE('',*,*,#322,.F.);
#201=ORIENTED_EDGE('',*,*,#323,.T.);
#202=ORIENTED_EDGE('',*,*,#322,.T.);
#203=ORIENTED_EDGE('',*,*,#316,.T.);
#204=ORIENTED_EDGE('',*,*,#303,.T.);
#205=ORIENTED_EDGE('',*,*,#292,.F.);
#206=ORIENTED_EDGE('',*,*,#297,.F.);
#207=ORIENTED_EDGE('',*,*,#324,.F.);
#208=ORIENTED_EDGE('',*,*,#319,.F.);
#209=ORIENTED_EDGE('',*,*,#323,.F.);
#210=ORIENTED_EDGE('',*,*,#308,.T.);
#211=ORIENTED_EDGE('',*,*,#325,.F.);
#212=ORIENTED_EDGE('',*,*,#326,.T.);
#213=ORIENTED_EDGE('',*,*,#310,.T.);
#214=ORIENTED_EDGE('',*,*,#327,.F.);
#215=ORIENTED_EDGE('',*,*,#307,.T.);
#216=ORIENTED_EDGE('',*,*,#300,.F.);
#217=ORIENTED_EDGE('',*,*,#328,.T.);
#218=ORIENTED_EDGE('',*,*,#325,.T.);
#219=ORIENTED_EDGE('',*,*,#299,.F.);
#220=ORIENTED_EDGE('',*,*,#329,.T.);
#221=ORIENTED_EDGE('',*,*,#330,.T.);
#222=ORIENTED_EDGE('',*,*,#314,.F.);
#223=ORIENTED_EDGE('',*,*,#311,.F.);
#224=ORIENTED_EDGE('',*,*,#326,.F.);
#225=ORIENTED_EDGE('',*,*,#328,.F.);
#226=ORIENTED_EDGE('',*,*,#315,.F.);
#227=ORIENTED_EDGE('',*,*,#330,.F.);
#228=ORIENTED_EDGE('',*,*,#331,.T.);
#229=ORIENTED_EDGE('',*,*,#305,.T.);
#230=ORIENTED_EDGE('',*,*,#302,.F.);
#231=ORIENTED_EDGE('',*,*,#306,.F.);
#232=ORIENTED_EDGE('',*,*,#331,.F.);
#233=ORIENTED_EDGE('',*,*,#329,.F.);
#234=ORIENTED_EDGE('',*,*,#309,.T.);
#235=ORIENTED_EDGE('',*,*,#313,.T.);
#236=ORIENTED_EDGE('',*,*,#332,.T.);
#237=ORIENTED_EDGE('',*,*,#333,.T.);
#238=ORIENTED_EDGE('',*,*,#327,.T.);
#239=ORIENTED_EDGE('',*,*,#334,.T.);
#240=ORIENTED_EDGE('',*,*,#296,.T.);
#241=ORIENTED_EDGE('',*,*,#335,.T.);
#242=ORIENTED_EDGE('',*,*,#333,.F.);
#243=ORIENTED_EDGE('',*,*,#332,.F.);
#244=ORIENTED_EDGE('',*,*,#293,.F.);
#245=ORIENTED_EDGE('',*,*,#320,.T.);
#246=ORIENTED_EDGE('',*,*,#324,.T.);
#247=ORIENTED_EDGE('',*,*,#334,.F.);
#248=ORIENTED_EDGE('',*,*,#335,.F.);
#249=ORIENTED_EDGE('',*,*,#318,.T.);
#250=ORIENTED_EDGE('',*,*,#321,.T.);
#251=ORIENTED_EDGE('',*,*,#336,.T.);
#252=ORIENTED_EDGE('',*,*,#337,.T.);
#253=ORIENTED_EDGE('',*,*,#338,.F.);
#254=ORIENTED_EDGE('',*,*,#337,.F.);
#255=ORIENTED_EDGE('',*,*,#339,.T.);
#256=ORIENTED_EDGE('',*,*,#336,.F.);
#257=ORIENTED_EDGE('',*,*,#339,.F.);
#258=ORIENTED_EDGE('',*,*,#338,.T.);
#259=VERTEX_POINT('',#543);
#260=VERTEX_POINT('',#544);
#261=VERTEX_POINT('',#546);
#262=VERTEX_POINT('',#548);
#263=VERTEX_POINT('',#552);
#264=VERTEX_POINT('',#553);
#265=VERTEX_POINT('',#558);
#266=VERTEX_POINT('',#559);
#267=VERTEX_POINT('',#561);
#268=VERTEX_POINT('',#563);
#269=VERTEX_POINT('',#567);
#270=VERTEX_POINT('',#568);
#271=VERTEX_POINT('',#570);
#272=VERTEX_POINT('',#572);
#273=VERTEX_POINT('',#575);
#274=VERTEX_POINT('',#579);
#275=VERTEX_POINT('',#580);
#276=VERTEX_POINT('',#582);
#277=VERTEX_POINT('',#584);
#278=VERTEX_POINT('',#589);
#279=VERTEX_POINT('',#594);
#280=VERTEX_POINT('',#596);
#281=VERTEX_POINT('',#600);
#282=VERTEX_POINT('',#601);
#283=VERTEX_POINT('',#603);
#284=VERTEX_POINT('',#613);
#285=VERTEX_POINT('',#620);
#286=VERTEX_POINT('',#627);
#287=VERTEX_POINT('',#631);
#288=VERTEX_POINT('',#636);
#289=VERTEX_POINT('',#638);
#290=VERTEX_POINT('',#641);
#291=VERTEX_POINT('',#644);
#292=EDGE_CURVE('',#259,#260,#340,.T.);
#293=EDGE_CURVE('',#260,#261,#144,.T.);
#294=EDGE_CURVE('',#261,#262,#341,.T.);
#295=EDGE_CURVE('',#259,#262,#145,.T.);
#296=EDGE_CURVE('',#263,#264,#146,.T.);
#297=EDGE_CURVE('',#263,#259,#342,.T.);
#298=EDGE_CURVE('',#262,#264,#343,.T.);
#299=EDGE_CURVE('',#265,#266,#344,.T.);
#300=EDGE_CURVE('',#266,#267,#345,.T.);
#301=EDGE_CURVE('',#268,#267,#346,.T.);
#302=EDGE_CURVE('',#268,#265,#347,.T.);
#303=EDGE_CURVE('',#269,#270,#147,.T.);
#304=EDGE_CURVE('',#271,#269,#348,.T.);
#305=EDGE_CURVE('',#272,#271,#349,.T.);
#306=EDGE_CURVE('',#272,#268,#350,.T.);
#307=EDGE_CURVE('',#273,#267,#148,.T.);
#308=EDGE_CURVE('',#270,#273,#351,.T.);
#309=EDGE_CURVE('',#274,#275,#149,.T.);
#310=EDGE_CURVE('',#276,#274,#352,.T.);
#311=EDGE_CURVE('',#276,#277,#150,.T.);
#312=EDGE_CURVE('',#277,#275,#353,.T.);
#313=EDGE_CURVE('',#275,#261,#354,.T.);
#314=EDGE_CURVE('',#277,#278,#355,.T.);
#315=EDGE_CURVE('',#278,#271,#356,.T.);
#316=EDGE_CURVE('',#279,#269,#65,.T.);
#317=EDGE_CURVE('',#280,#279,#357,.T.);
#318=EDGE_CURVE('',#264,#280,#358,.T.);
#319=EDGE_CURVE('',#281,#282,#359,.T.);
#320=EDGE_CURVE('',#283,#282,#151,.T.);
#321=EDGE_CURVE('',#280,#283,#152,.T.);
#322=EDGE_CURVE('',#281,#279,#153,.T.);
#323=EDGE_CURVE('',#270,#281,#66,.T.);
#324=EDGE_CURVE('',#282,#263,#360,.T.);
#325=EDGE_CURVE('',#284,#273,#361,.T.);
#326=EDGE_CURVE('',#284,#276,#362,.T.);
#327=EDGE_CURVE('',#260,#274,#363,.T.);
#328=EDGE_CURVE('',#266,#284,#154,.T.);
#329=EDGE_CURVE('',#265,#285,#364,.T.);
#330=EDGE_CURVE('',#285,#278,#365,.T.);
#331=EDGE_CURVE('',#285,#272,#366,.T.);
#332=EDGE_CURVE('',#261,#286,#155,.T.);
#333=EDGE_CURVE('',#286,#260,#156,.T.);
#334=EDGE_CURVE('',#287,#263,#157,.T.);
#335=EDGE_CURVE('',#264,#287,#158,.T.);
#336=EDGE_CURVE('',#288,#288,#159,.T.);
#337=EDGE_CURVE('',#289,#289,#160,.T.);
#338=EDGE_CURVE('',#290,#290,#161,.T.);
#339=EDGE_CURVE('',#291,#291,#162,.T.);
#340=LINE('',#542,#367);
#341=LINE('',#547,#368);
#342=LINE('',#554,#369);
#343=LINE('',#555,#370);
#344=LINE('',#557,#371);
#345=LINE('',#560,#372);
#346=LINE('',#562,#373);
#347=LINE('',#564,#374);
#348=LINE('',#569,#375);
#349=LINE('',#571,#376);
#350=LINE('',#573,#377);
#351=LINE('',#576,#378);
#352=LINE('',#581,#379);
#353=LINE('',#585,#380);
#354=LINE('',#587,#381);
#355=LINE('',#588,#382);
#356=LINE('',#590,#383);
#357=LINE('',#595,#384);
#358=LINE('',#597,#385);
#359=LINE('',#599,#386);
#360=LINE('',#611,#387);
#361=LINE('',#612,#388);
#362=LINE('',#614,#389);
#363=LINE('',#615,#390);
#364=LINE('',#619,#391);
#365=LINE('',#621,#392);
#366=LINE('',#623,#393);
#367=VECTOR('',#436,1.);
#368=VECTOR('',#439,1.);
#369=VECTOR('',#446,1.);
#370=VECTOR('',#447,1.);
#371=VECTOR('',#450,1.);
#372=VECTOR('',#451,1.);
#373=VECTOR('',#452,1.);
#374=VECTOR('',#453,1.);
#375=VECTOR('',#458,1.);
#376=VECTOR('',#459,1.);
#377=VECTOR('',#460,1.);
#378=VECTOR('',#463,1.);
#379=VECTOR('',#468,1.);
#380=VECTOR('',#471,1.);
#381=VECTOR('',#474,1.);
#382=VECTOR('',#475,1.);
#383=VECTOR('',#476,1.);
#384=VECTOR('',#477,1.);
#385=VECTOR('',#478,1.);
#386=VECTOR('',#481,1.);
#387=VECTOR('',#492,1.);
#388=VECTOR('',#493,1.);
#389=VECTOR('',#494,1.);
#390=VECTOR('',#495,1.);
#391=VECTOR('',#502,1.);
#392=VECTOR('',#503,1.);
#393=VECTOR('',#506,1.);
#394=AXIS2_PLACEMENT_3D('',#541,#434,#435);
#395=AXIS2_PLACEMENT_3D('',#545,#437,#438);
#396=AXIS2_PLACEMENT_3D('',#549,#440,#441);
#397=AXIS2_PLACEMENT_3D('',#550,#442,#443);
#398=AXIS2_PLACEMENT_3D('',#551,#444,#445);
#399=AXIS2_PLACEMENT_3D('',#556,#448,#449);
#400=AXIS2_PLACEMENT_3D('',#565,#454,#455);
#401=AXIS2_PLACEMENT_3D('',#566,#456,#457);
#402=AXIS2_PLACEMENT_3D('',#574,#461,#462);
#403=AXIS2_PLACEMENT_3D('',#577,#464,#465);
#404=AXIS2_PLACEMENT_3D('',#578,#466,#467);
#405=AXIS2_PLACEMENT_3D('',#583,#469,#470);
#406=AXIS2_PLACEMENT_3D('',#586,#472,#473);
#407=AXIS2_PLACEMENT_3D('',#598,#479,#480);
#408=AXIS2_PLACEMENT_3D('',#602,#482,#483);
#409=AXIS2_PLACEMENT_3D('',#604,#484,#485);
#410=AXIS2_PLACEMENT_3D('',#605,#486,#487);
#411=AXIS2_PLACEMENT_3D('',#606,#488,#489);
#412=AXIS2_PLACEMENT_3D('',#610,#490,#491);
#413=AXIS2_PLACEMENT_3D('',#616,#496,#497);
#414=AXIS2_PLACEMENT_3D('',#617,#498,#499);
#415=AXIS2_PLACEMENT_3D('',#618,#500,#501);
#416=AXIS2_PLACEMENT_3D('',#622,#504,#505);
#417=AXIS2_PLACEMENT_3D('',#624,#507,#508);
#418=AXIS2_PLACEMENT_3D('',#625,#509,#510);
#419=AXIS2_PLACEMENT_3D('',#626,#511,#512);
#420=AXIS2_PLACEMENT_3D('',#628,#513,#514);
#421=AXIS2_PLACEMENT_3D('',#629,#515,#516);
#422=AXIS2_PLACEMENT_3D('',#630,#517,#518);
#423=AXIS2_PLACEMENT_3D('',#632,#519,#520);
#424=AXIS2_PLACEMENT_3D('',#633,#521,#522);
#425=AXIS2_PLACEMENT_3D('',#634,#523,#524);
#426=AXIS2_PLACEMENT_3D('',#635,#525,#526);
#427=AXIS2_PLACEMENT_3D('',#637,#527,#528);
#428=AXIS2_PLACEMENT_3D('',#639,#529,#530);
#429=AXIS2_PLACEMENT_3D('',#640,#531,#532);
#430=AXIS2_PLACEMENT_3D('',#642,#533,#534);
#431=AXIS2_PLACEMENT_3D('',#643,#535,#536);
#432=AXIS2_PLACEMENT_3D('',#645,#537,#538);
#433=AXIS2_PLACEMENT_3D('',#646,#539,#540);
#434=DIRECTION('',(0.,0.,1.));
#435=DIRECTION('',(1.,0.,0.));
#436=DIRECTION('',(0.499999999999997,0.,-0.86602540378444));
#437=DIRECTION('',(0.,-1.,0.));
#438=DIRECTION('',(0.831128861170624,0.,-0.556079864883832));
#439=DIRECTION('',(-0.866025403784436,0.,0.500000000000005));
#440=DIRECTION('',(0.,-1.,0.));
#441=DIRECTION('',(0.,0.,-1.));
#442=DIRECTION('',(0.,1.,0.));
#443=DIRECTION('',(0.,0.,1.));
#444=DIRECTION('',(0.,-1.,0.));
#445=DIRECTION('',(0.831128861170624,0.,-0.556079864883831));
#446=DIRECTION('',(0.,-1.,0.));
#447=DIRECTION('',(0.,1.,0.));
#448=DIRECTION('',(0.,1.,0.));
#449=DIRECTION('',(0.,0.,1.));
#450=DIRECTION('',(0.,0.,-1.));
#451=DIRECTION('',(0.,1.,0.));
#452=DIRECTION('',(0.,0.,-1.));
#453=DIRECTION('',(0.,-1.,0.));
#454=DIRECTION('',(-1.,0.,0.));
#455=DIRECTION('',(0.,0.,-1.));
#456=DIRECTION('',(0.,1.,0.));
#457=DIRECTION('',(0.,0.,-1.));
#458=DIRECTION('',(0.866025403784439,0.,-0.5));
#459=DIRECTION('',(0.,0.,-1.));
#460=DIRECTION('',(1.,0.,0.));
#461=DIRECTION('',(0.,1.,0.));
#462=DIRECTION('',(-1.,0.,0.));
#463=DIRECTION('',(-0.5,0.,0.866025403784439));
#464=DIRECTION('',(0.,-1.,0.));
#465=DIRECTION('',(0.,0.,-1.));
#466=DIRECTION('',(0.,1.,0.));
#467=DIRECTION('',(0.499999999999999,0.,0.86602540378444));
#468=DIRECTION('',(0.,1.,0.));
#469=DIRECTION('',(0.,1.,0.));
#470=DIRECTION('',(0.499999999999999,0.,0.86602540378444));
#471=DIRECTION('',(0.,1.,0.));
#472=DIRECTION('',(0.,-1.,0.));
#473=DIRECTION('',(-0.499999999999999,0.,-0.86602540378444));
#474=DIRECTION('',(-0.866025403784436,0.,0.500000000000005));
#475=DIRECTION('',(-0.866025403784439,0.,0.499999999999999));
#476=DIRECTION('',(0.,1.,0.));
#477=DIRECTION('',(-0.866025403784444,0.,0.49999999999999));
#478=DIRECTION('',(0.,1.,0.));
#479=DIRECTION('',(-0.5,0.,-0.866025403784439));
#480=DIRECTION('',(0.,1.,0.));
#481=DIRECTION('',(0.500000000000002,0.,-0.866025403784438));
#482=DIRECTION('',(0.,-1.,0.));
#483=DIRECTION('',(0.831128861170624,0.,-0.556079864883832));
#484=DIRECTION('',(0.,-1.,0.));
#485=DIRECTION('',(0.831128861170624,0.,-0.556079864883832));
#486=DIRECTION('',(0.,-1.,0.));
#487=DIRECTION('',(0.,0.,0.999999999999999));
#488=DIRECTION('',(0.,1.,0.));
#489=DIRECTION('',(0.,0.,1.));
#490=DIRECTION('',(0.,1.,0.));
#491=DIRECTION('',(0.,2.27624858744846E-16,1.));
#492=DIRECTION('',(0.,-1.,0.));
#493=DIRECTION('',(0.,1.,0.));
#494=DIRECTION('',(0.5,0.,-0.866025403784439));
#495=DIRECTION('',(0.499999999999997,0.,-0.86602540378444));
#496=DIRECTION('',(0.866025403784439,0.,0.5));
#497=DIRECTION('',(0.,-1.,0.));
#498=DIRECTION('',(0.,-1.,0.));
#499=DIRECTION('',(-1.,0.,0.));
#500=DIRECTION('',(0.,-1.,0.));
#501=DIRECTION('',(1.,0.,0.));
#502=DIRECTION('',(-1.,0.,0.));
#503=DIRECTION('',(0.,0.,-1.));
#504=DIRECTION('',(0.,1.,0.));
#505=DIRECTION('',(0.,0.,1.));
#506=DIRECTION('',(0.,1.,0.));
#507=DIRECTION('',(1.,0.,0.));
#508=DIRECTION('',(0.,0.,1.));
#509=DIRECTION('',(0.,0.,1.));
#510=DIRECTION('',(0.,-1.,0.));
#511=DIRECTION('',(0.,-1.,0.));
#512=DIRECTION('',(0.831128861170624,0.,-0.556079864883832));
#513=DIRECTION('',(0.,-1.,0.));
#514=DIRECTION('',(0.831128861170624,0.,-0.556079864883832));
#515=DIRECTION('',(0.,1.,0.));
#516=DIRECTION('',(0.556079864883832,0.,0.831128861170624));
#517=DIRECTION('',(0.,-1.,0.));
#518=DIRECTION('',(0.831128861170624,0.,-0.556079864883831));
#519=DIRECTION('',(0.,-1.,0.));
#520=DIRECTION('',(0.831128861170624,0.,-0.556079864883831));
#521=DIRECTION('',(5.56381097501501E-16,1.,-3.72255543005427E-16));
#522=DIRECTION('',(-0.831128861170624,5.75544928836947E-16,0.556079864883832));
#523=DIRECTION('',(-5.56381097501501E-16,-1.,3.72255543005427E-16));
#524=DIRECTION('',(-0.831128861170624,5.12095491063264E-16,0.556079864883832));
#525=DIRECTION('',(0.,1.,0.));
#526=DIRECTION('',(0.981526823767105,0.,0.191324578205886));
#527=DIRECTION('',(0.,-1.,0.));
#528=DIRECTION('',(0.,0.,-1.));
#529=DIRECTION('',(0.,-1.,0.));
#530=DIRECTION('',(-0.191324578205884,0.,0.981526823767105));
#531=DIRECTION('',(0.,1.,0.));
#532=DIRECTION('',(0.981526823767104,0.,0.191324578205889));
#533=DIRECTION('',(-1.22336914398238E-16,1.,-2.38465806328345E-17));
#534=DIRECTION('',(-0.981526823767104,0.,-0.191324578205889));
#535=DIRECTION('',(0.,1.,0.));
#536=DIRECTION('',(0.981526823767104,0.,0.191324578205885));
#537=DIRECTION('',(-1.22336914398238E-16,1.,-2.38465806328345E-17));
#538=DIRECTION('',(-0.981526823767104,7.98217969415014E-16,-0.191324578205884));
#539=DIRECTION('',(0.,1.,0.));
#540=DIRECTION('',(0.191324578205884,0.,-0.981526823767105));
#541=CARTESIAN_POINT('',(0.,0.,0.));
#542=CARTESIAN_POINT('',(27.9508126009376,20.89,-157.375058963576));
#543=CARTESIAN_POINT('',(27.9508126009376,20.89,-157.375058963576));
#544=CARTESIAN_POINT('',(28.5081441074728,20.89,-158.340385449554));
#545=CARTESIAN_POINT('',(23.,20.89,-162.));
#546=CARTESIAN_POINT('',(19.340385449553,20.89,-167.508144107472));
#547=CARTESIAN_POINT('',(19.7,20.89,-167.715767664977));
#548=CARTESIAN_POINT('',(18.3750589635762,20.89,-166.950812600938));
#549=CARTESIAN_POINT('',(23.,20.89,-162.));
#550=CARTESIAN_POINT('',(23.,20.89,-162.));
#551=CARTESIAN_POINT('',(23.,21.0519500102809,-162.));
#552=CARTESIAN_POINT('',(27.9508126009376,21.0519500102809,-157.375058963576));
#553=CARTESIAN_POINT('',(18.3750589635762,21.0519500102808,-166.950812600938));
#554=CARTESIAN_POINT('',(27.9508126009376,25.15,-157.375058963576));
#555=CARTESIAN_POINT('',(18.3750589635762,20.89,-166.950812600938));
#556=CARTESIAN_POINT('',(23.,32.,-162.));
#557=CARTESIAN_POINT('',(25.,-6.93889390390723E-15,0.));
#558=CARTESIAN_POINT('',(25.,-6.93889390390723E-15,0.));
#559=CARTESIAN_POINT('',(25.,-6.93889390390723E-15,-150.656406460551));
#560=CARTESIAN_POINT('',(25.,-6.93889390390723E-15,-150.656406460551));
#561=CARTESIAN_POINT('',(25.,32.,-150.656406460551));
#562=CARTESIAN_POINT('',(25.,32.,0.));
#563=CARTESIAN_POINT('',(25.,32.,0.));
#564=CARTESIAN_POINT('',(25.,32.,0.));
#565=CARTESIAN_POINT('',(25.,32.,0.));
#566=CARTESIAN_POINT('',(23.,32.,-162.));
#567=CARTESIAN_POINT('',(15.7846456099097,32.,-165.455236753886));
#568=CARTESIAN_POINT('',(26.4552367538858,32.,-154.78464560991));
#569=CARTESIAN_POINT('',(0.,32.,-156.341967361942));
#570=CARTESIAN_POINT('',(0.,32.,-156.341967361942));
#571=CARTESIAN_POINT('',(0.,32.,0.));
#572=CARTESIAN_POINT('',(0.,32.,0.));
#573=CARTESIAN_POINT('',(0.,32.,0.));
#574=CARTESIAN_POINT('',(31.,32.,-150.656406460551));
#575=CARTESIAN_POINT('',(25.8038475772934,32.,-153.656406460551));
#576=CARTESIAN_POINT('',(26.4552367538858,32.,-154.78464560991));
#577=CARTESIAN_POINT('',(0.,32.,0.));
#578=CARTESIAN_POINT('',(23.,20.89,-162.));
#579=CARTESIAN_POINT('',(28.7157676649773,20.89,-158.7));
#580=CARTESIAN_POINT('',(19.7,20.89,-167.715767664977));
#581=CARTESIAN_POINT('',(28.7157676649773,-6.93889390390723E-15,-158.7));
#582=CARTESIAN_POINT('',(28.7157676649773,-6.93889390390723E-15,-158.7));
#583=CARTESIAN_POINT('',(23.,-6.93889390390723E-15,-162.));
#584=CARTESIAN_POINT('',(19.7,-6.93889390390723E-15,-167.715767664977));
#585=CARTESIAN_POINT('',(19.7,-6.93889390390723E-15,-167.715767664977));
#586=CARTESIAN_POINT('',(23.,32.,-162.));
#587=CARTESIAN_POINT('',(19.7,20.89,-167.715767664977));
#588=CARTESIAN_POINT('',(19.7,-6.93889390390723E-15,-167.715767664977));
#589=CARTESIAN_POINT('',(0.,0.,-156.341967361942));
#590=CARTESIAN_POINT('',(0.,0.,-156.341967361942));
#591=CARTESIAN_POINT('',(17.1659656497412,25.15,-166.25274225072));
#592=CARTESIAN_POINT('',(16.5107227142251,27.8414388321291,-165.874437565515));
#593=CARTESIAN_POINT('',(15.7846456099096,32.,-165.455236753886));
#594=CARTESIAN_POINT('',(17.0465708620639,25.65,-166.183809637914));
#595=CARTESIAN_POINT('',(18.3750589635762,25.65,-166.950812600938));
#596=CARTESIAN_POINT('',(18.3750589635762,25.65,-166.950812600938));
#597=CARTESIAN_POINT('',(18.3750589635762,20.89,-166.950812600938));
#598=CARTESIAN_POINT('',(0.,32.,-156.341967361942));
#599=CARTESIAN_POINT('',(27.2527422507196,25.65,-156.165965649741));
#600=CARTESIAN_POINT('',(27.1838096379143,25.65,-156.046570862064));
#601=CARTESIAN_POINT('',(27.9508126009377,25.65,-157.375058963576));
#602=CARTESIAN_POINT('',(23.,25.65,-162.));
#603=CARTESIAN_POINT('',(28.630898034431,25.6499999999999,-165.767441084588));
#604=CARTESIAN_POINT('',(23.,25.65,-162.));
#605=CARTESIAN_POINT('',(23.,25.65,-162.));
#606=CARTESIAN_POINT('',(23.,25.65,-162.));
#607=CARTESIAN_POINT('',(26.4552367538858,32.,-154.78464560991));
#608=CARTESIAN_POINT('',(26.8744375655148,27.8414388321291,-155.510722714225));
#609=CARTESIAN_POINT('',(27.2527422507196,25.15,-156.165965649741));
#610=CARTESIAN_POINT('',(23.,32.,-162.));
#611=CARTESIAN_POINT('',(27.9508126009376,25.15,-157.375058963576));
#612=CARTESIAN_POINT('',(25.8038475772934,-6.93889390390723E-15,-153.656406460551));
#613=CARTESIAN_POINT('',(25.8038475772934,-6.93889390390723E-15,-153.656406460551));
#614=CARTESIAN_POINT('',(25.8038475772934,-6.93889390390723E-15,-153.656406460551));
#615=CARTESIAN_POINT('',(27.9508126009376,20.89,-157.375058963576));
#616=CARTESIAN_POINT('',(28.7157676649773,32.,-158.7));
#617=CARTESIAN_POINT('',(31.,-6.93889390390723E-15,-150.656406460551));
#618=CARTESIAN_POINT('',(31.,32.,-150.656406460551));
#619=CARTESIAN_POINT('',(25.,-6.93889390390723E-15,0.));
#620=CARTESIAN_POINT('',(0.,0.,0.));
#621=CARTESIAN_POINT('',(0.,0.,0.));
#622=CARTESIAN_POINT('',(25.,-6.93889390390723E-15,0.));
#623=CARTESIAN_POINT('',(0.,0.,0.));
#624=CARTESIAN_POINT('',(0.,0.,0.));
#625=CARTESIAN_POINT('',(12.5,16.,0.));
#626=CARTESIAN_POINT('',(23.,20.89,-162.));
#627=CARTESIAN_POINT('',(28.4962967068196,20.89,-165.677383944753));
#628=CARTESIAN_POINT('',(23.,20.89,-162.));
#629=CARTESIAN_POINT('',(27.3059666552522,20.89,-164.880974861677));
#630=CARTESIAN_POINT('',(23.,21.0519500102809,-162.));
#631=CARTESIAN_POINT('',(28.630898034431,21.0519500102809,-165.767441084588));
#632=CARTESIAN_POINT('',(23.,21.0519500102809,-162.));
#633=CARTESIAN_POINT('',(23.,20.9709750051404,-162.));
#634=CARTESIAN_POINT('',(23.,23.3509750051404,-162.));
#635=CARTESIAN_POINT('',(23.,32.,-162.));
#636=CARTESIAN_POINT('',(30.8522145901369,32.,-160.469403374353));
#637=CARTESIAN_POINT('',(23.,32.,-162.));
#638=CARTESIAN_POINT('',(23.,32.,-164.7));
#639=CARTESIAN_POINT('',(28.4484179969874,32.,-160.937964556932));
#640=CARTESIAN_POINT('',(23.,25.65,-162.));
#641=CARTESIAN_POINT('',(25.6501224241712,25.65,-161.483423638844));
#642=CARTESIAN_POINT('',(23.,28.075,-162.));
#643=CARTESIAN_POINT('',(23.,25.65,-162.));
#644=CARTESIAN_POINT('',(30.0869358306881,25.65,-160.618575696816));
#645=CARTESIAN_POINT('',(23.,28.825,-162.));
#646=CARTESIAN_POINT('',(27.8685291274297,25.65,-161.05099966783));
#647=MECHANICAL_DESIGN_GEOMETRIC_PRESENTATION_REPRESENTATION('',(#33,#34),
#648);
#648=(
GEOMETRIC_REPRESENTATION_CONTEXT(3)
GLOBAL_UNCERTAINTY_ASSIGNED_CONTEXT((#649))
GLOBAL_UNIT_ASSIGNED_CONTEXT((#655,#651,#650))
REPRESENTATION_CONTEXT('PRSCL3225P16_SIM','TOP_LEVEL_ASSEMBLY_PART')
);
#649=UNCERTAINTY_MEASURE_WITH_UNIT(LENGTH_MEASURE(2.E-5),#655,
'DISTANCE_ACCURACY_VALUE','Maximum Tolerance applied to model');
#650=(
NAMED_UNIT(*)
SI_UNIT($,.STERADIAN.)
SOLID_ANGLE_UNIT()
);
#651=(
CONVERSION_BASED_UNIT('DEGREE',#653)
NAMED_UNIT(#652)
PLANE_ANGLE_UNIT()
);
#652=DIMENSIONAL_EXPONENTS(0.,0.,0.,0.,0.,0.,0.);
#653=PLANE_ANGLE_MEASURE_WITH_UNIT(PLANE_ANGLE_MEASURE(0.0174532925),#654);
#654=(
NAMED_UNIT(*)
PLANE_ANGLE_UNIT()
SI_UNIT($,.RADIAN.)
);
#655=(
LENGTH_UNIT()
NAMED_UNIT(*)
SI_UNIT(.MILLI.,.METRE.)
);
ENDSEC;
END-ISO-10303-21;
