ISO-10303-21;
HEADER;
/* Generated by software containing ST-Developer
 * from STEP Tools, Inc. (www.steptools.com) 
 */
/* OPTION: using custom schema-name function */

FILE_DESCRIPTION(
/* description */ (''),
/* implementation_level */ '2;1');

FILE_NAME(
/* name */ 'PRDCN5050V32.stp',
/* time_stamp */ '2023-02-09T07:26:58+01:00',
/* author */ (''),
/* organization */ (''),
/* preprocessor_version */ 'ST-DEVELOPER v16.7',
/* originating_system */ 'SIEMENS PLM Software NX 12.0',
/* authorisation */ '');

FILE_SCHEMA (('AUTOMOTIVE_DESIGN { 1 0 10303 214 3 1 1 1 }'));
ENDSEC;

DATA;
#10=PROPERTY_DEFINITION_REPRESENTATION(#14,#12);
#11=PROPERTY_DEFINITION_REPRESENTATION(#15,#13);
#12=REPRESENTATION('',(#16),#626);
#13=REPRESENTATION('',(#17),#626);
#14=PROPERTY_DEFINITION('pmi validation property','',#21);
#15=PROPERTY_DEFINITION('pmi validation property','',#21);
#16=VALUE_REPRESENTATION_ITEM('number of annotations',COUNT_MEASURE(0.));
#17=VALUE_REPRESENTATION_ITEM('number of views',COUNT_MEASURE(0.));
#18=SHAPE_REPRESENTATION_RELATIONSHIP('None',
'relationship between kl6220546E90sucw-None and kl6220546E90sucw-None',
#30,#19);
#19=ADVANCED_BREP_SHAPE_REPRESENTATION('kl6220546E90sucw-None',(#48,#49),
#626);
#20=SHAPE_DEFINITION_REPRESENTATION(#21,#30);
#21=PRODUCT_DEFINITION_SHAPE('','',#22);
#22=PRODUCT_DEFINITION(' ','',#24,#23);
#23=PRODUCT_DEFINITION_CONTEXT('part definition',#29,'design');
#24=PRODUCT_DEFINITION_FORMATION_WITH_SPECIFIED_SOURCE(' ',' ',#26,
 .NOT_KNOWN.);
#25=PRODUCT_RELATED_PRODUCT_CATEGORY('part','',(#26));
#26=PRODUCT('kl6220546E90sucw','kl6220546E90sucw',' ',(#27));
#27=PRODUCT_CONTEXT(' ',#29,'mechanical');
#28=APPLICATION_PROTOCOL_DEFINITION('international standard',
'automotive_design',2010,#29);
#29=APPLICATION_CONTEXT(
'core data for automotive mechanical design processes');
#30=SHAPE_REPRESENTATION('kl6220546E90sucw-None',(#374),#626);
#31=DRAUGHTING_PRE_DEFINED_COLOUR('white');
#32=PRESENTATION_LAYER_ASSIGNMENT('1','Layer 1',(#48,#49));
#33=STYLED_ITEM('',(#35),#48);
#34=STYLED_ITEM('',(#36),#49);
#35=PRESENTATION_STYLE_ASSIGNMENT((#37));
#36=PRESENTATION_STYLE_ASSIGNMENT((#38));
#37=SURFACE_STYLE_USAGE(.BOTH.,#39);
#38=SURFACE_STYLE_USAGE(.BOTH.,#40);
#39=SURFACE_SIDE_STYLE('',(#41));
#40=SURFACE_SIDE_STYLE('',(#42));
#41=SURFACE_STYLE_FILL_AREA(#43);
#42=SURFACE_STYLE_FILL_AREA(#44);
#43=FILL_AREA_STYLE('',(#45));
#44=FILL_AREA_STYLE('',(#46));
#45=FILL_AREA_STYLE_COLOUR('',#47);
#46=FILL_AREA_STYLE_COLOUR('',#31);
#47=COLOUR_RGB('Medium Gray',0.490196078431373,0.490196078431373,0.490196078431373);
#48=MANIFOLD_SOLID_BREP('S\X\D3LIDO1',#50);
#49=MANIFOLD_SOLID_BREP('S\X\D3LIDO1',#51);
#50=CLOSED_SHELL('',(#94,#95,#96,#97,#98,#99,#100,#101,#102,#103,#104,#105,
#106,#107,#108,#109));
#51=CLOSED_SHELL('',(#110,#111,#112,#113,#114));
#52=FACE_BOUND('',#154,.T.);
#53=FACE_BOUND('',#155,.T.);
#54=FACE_BOUND('',#156,.T.);
#55=FACE_BOUND('',#157,.T.);
#56=FACE_BOUND('',#158,.T.);
#57=FACE_BOUND('',#159,.T.);
#58=FACE_BOUND('',#160,.T.);
#59=FACE_BOUND('',#161,.T.);
#60=FACE_BOUND('',#162,.T.);
#61=FACE_BOUND('',#163,.T.);
#62=FACE_BOUND('',#164,.T.);
#63=FACE_BOUND('',#165,.T.);
#64=FACE_BOUND('',#166,.T.);
#65=FACE_BOUND('',#167,.T.);
#66=CYLINDRICAL_SURFACE('',#389,28.);
#67=CYLINDRICAL_SURFACE('',#390,28.);
#68=CYLINDRICAL_SURFACE('',#394,14.);
#69=CYLINDRICAL_SURFACE('',#396,14.);
#70=CYLINDRICAL_SURFACE('',#402,14.);
#71=CYLINDRICAL_SURFACE('',#408,6.);
#72=CONICAL_SURFACE('',#388,16.,7.);
#73=CONICAL_SURFACE('',#403,13.75,45.0000000000001);
#74=CONICAL_SURFACE('',#406,6.25,45.);
#75=CONICAL_SURFACE('',#413,15.4155454901022,6.99999999999999);
#76=CIRCLE('',#377,14.);
#77=CIRCLE('',#378,14.);
#78=CIRCLE('',#379,28.);
#79=CIRCLE('',#380,28.);
#80=CIRCLE('',#383,16.);
#81=CIRCLE('',#384,28.);
#82=CIRCLE('',#385,28.);
#83=CIRCLE('',#387,14.0501811728619);
#84=CIRCLE('',#393,14.);
#85=CIRCLE('',#395,14.);
#86=CIRCLE('',#397,13.5);
#87=CIRCLE('',#399,14.);
#88=CIRCLE('',#401,14.);
#89=CIRCLE('',#404,6.5);
#90=CIRCLE('',#405,6.);
#91=CIRCLE('',#407,6.);
#92=CIRCLE('',#409,14.8310909802044);
#93=CIRCLE('',#411,16.);
#94=ADVANCED_FACE('',(#126),#115,.F.);
#95=ADVANCED_FACE('',(#127),#116,.F.);
#96=ADVANCED_FACE('',(#128),#117,.T.);
#97=ADVANCED_FACE('',(#129),#118,.T.);
#98=ADVANCED_FACE('',(#130),#119,.T.);
#99=ADVANCED_FACE('',(#131),#72,.F.);
#100=ADVANCED_FACE('',(#132),#66,.F.);
#101=ADVANCED_FACE('',(#133),#67,.F.);
#102=ADVANCED_FACE('',(#134),#120,.T.);
#103=ADVANCED_FACE('',(#135),#121,.F.);
#104=ADVANCED_FACE('',(#136),#68,.T.);
#105=ADVANCED_FACE('',(#137),#69,.T.);
#106=ADVANCED_FACE('',(#138),#122,.T.);
#107=ADVANCED_FACE('',(#139),#123,.T.);
#108=ADVANCED_FACE('',(#52,#53),#70,.T.);
#109=ADVANCED_FACE('',(#54,#55),#73,.T.);
#110=ADVANCED_FACE('',(#56,#57),#74,.F.);
#111=ADVANCED_FACE('',(#58,#59),#71,.F.);
#112=ADVANCED_FACE('',(#60,#61),#124,.T.);
#113=ADVANCED_FACE('',(#62,#63),#125,.T.);
#114=ADVANCED_FACE('',(#64,#65),#75,.T.);
#115=PLANE('',#375);
#116=PLANE('',#376);
#117=PLANE('',#381);
#118=PLANE('',#382);
#119=PLANE('',#386);
#120=PLANE('',#391);
#121=PLANE('',#392);
#122=PLANE('',#398);
#123=PLANE('',#400);
#124=PLANE('',#410);
#125=PLANE('',#412);
#126=FACE_OUTER_BOUND('',#140,.T.);
#127=FACE_OUTER_BOUND('',#141,.T.);
#128=FACE_OUTER_BOUND('',#142,.T.);
#129=FACE_OUTER_BOUND('',#143,.T.);
#130=FACE_OUTER_BOUND('',#144,.T.);
#131=FACE_OUTER_BOUND('',#145,.T.);
#132=FACE_OUTER_BOUND('',#146,.T.);
#133=FACE_OUTER_BOUND('',#147,.T.);
#134=FACE_OUTER_BOUND('',#148,.T.);
#135=FACE_OUTER_BOUND('',#149,.T.);
#136=FACE_OUTER_BOUND('',#150,.T.);
#137=FACE_OUTER_BOUND('',#151,.T.);
#138=FACE_OUTER_BOUND('',#152,.T.);
#139=FACE_OUTER_BOUND('',#153,.T.);
#140=EDGE_LOOP('',(#212,#213,#214,#215,#216,#217,#218));
#141=EDGE_LOOP('',(#219,#220,#221,#222,#223,#224,#225));
#142=EDGE_LOOP('',(#226,#227,#228,#229,#230,#231,#232,#233,#234));
#143=EDGE_LOOP('',(#235,#236,#237,#238));
#144=EDGE_LOOP('',(#239,#240,#241,#242,#243,#244,#245,#246));
#145=EDGE_LOOP('',(#247,#248,#249,#250,#251,#252));
#146=EDGE_LOOP('',(#253,#254,#255,#256));
#147=EDGE_LOOP('',(#257,#258,#259,#260));
#148=EDGE_LOOP('',(#261,#262,#263,#264));
#149=EDGE_LOOP('',(#265,#266,#267,#268));
#150=EDGE_LOOP('',(#269,#270,#271,#272));
#151=EDGE_LOOP('',(#273,#274,#275,#276));
#152=EDGE_LOOP('',(#277,#278,#279,#280,#281,#282));
#153=EDGE_LOOP('',(#283));
#154=EDGE_LOOP('',(#284));
#155=EDGE_LOOP('',(#285));
#156=EDGE_LOOP('',(#286));
#157=EDGE_LOOP('',(#287));
#158=EDGE_LOOP('',(#288));
#159=EDGE_LOOP('',(#289));
#160=EDGE_LOOP('',(#290));
#161=EDGE_LOOP('',(#291));
#162=EDGE_LOOP('',(#292));
#163=EDGE_LOOP('',(#293));
#164=EDGE_LOOP('',(#294));
#165=EDGE_LOOP('',(#295));
#166=EDGE_LOOP('',(#296));
#167=EDGE_LOOP('',(#297));
#168=LINE('',#528,#189);
#169=LINE('',#530,#190);
#170=LINE('',#532,#191);
#171=LINE('',#534,#192);
#172=LINE('',#536,#193);
#173=LINE('',#538,#194);
#174=LINE('',#541,#195);
#175=LINE('',#543,#196);
#176=LINE('',#556,#197);
#177=LINE('',#558,#198);
#178=LINE('',#565,#199);
#179=LINE('',#567,#200);
#180=LINE('',#569,#201);
#181=LINE('',#573,#202);
#182=LINE('',#575,#203);
#183=LINE('',#577,#204);
#184=LINE('',#581,#205);
#185=LINE('',#583,#206);
#186=LINE('',#589,#207);
#187=LINE('',#592,#208);
#188=LINE('',#597,#209);
#189=VECTOR('',#416,1.);
#190=VECTOR('',#417,1.);
#191=VECTOR('',#418,1.);
#192=VECTOR('',#419,1.);
#193=VECTOR('',#420,1.);
#194=VECTOR('',#423,1.);
#195=VECTOR('',#424,1.);
#196=VECTOR('',#425,1.);
#197=VECTOR('',#426,1.);
#198=VECTOR('',#427,1.);
#199=VECTOR('',#436,1.);
#200=VECTOR('',#437,1.);
#201=VECTOR('',#438,1.);
#202=VECTOR('',#443,1.);
#203=VECTOR('',#444,1.);
#204=VECTOR('',#445,1.);
#205=VECTOR('',#452,1.);
#206=VECTOR('',#453,1.);
#207=VECTOR('',#462,1.);
#208=VECTOR('',#467,1.);
#209=VECTOR('',#474,1.);
#210=B_SPLINE_CURVE_WITH_KNOTS('',3,(#521,#522,#523,#524,#525,#526),
 .UNSPECIFIED.,.F.,.F.,(4,2,4),(0.,0.5,1.),.UNSPECIFIED.);
#211=B_SPLINE_CURVE_WITH_KNOTS('',3,(#545,#546,#547,#548,#549,#550),
 .UNSPECIFIED.,.F.,.F.,(4,2,4),(0.,0.5,1.),.UNSPECIFIED.);
#212=ORIENTED_EDGE('',*,*,#329,.T.);
#213=ORIENTED_EDGE('',*,*,#330,.T.);
#214=ORIENTED_EDGE('',*,*,#331,.T.);
#215=ORIENTED_EDGE('',*,*,#332,.T.);
#216=ORIENTED_EDGE('',*,*,#333,.F.);
#217=ORIENTED_EDGE('',*,*,#334,.F.);
#218=ORIENTED_EDGE('',*,*,#335,.F.);
#219=ORIENTED_EDGE('',*,*,#336,.F.);
#220=ORIENTED_EDGE('',*,*,#337,.F.);
#221=ORIENTED_EDGE('',*,*,#338,.T.);
#222=ORIENTED_EDGE('',*,*,#339,.T.);
#223=ORIENTED_EDGE('',*,*,#340,.T.);
#224=ORIENTED_EDGE('',*,*,#341,.F.);
#225=ORIENTED_EDGE('',*,*,#342,.T.);
#226=ORIENTED_EDGE('',*,*,#333,.T.);
#227=ORIENTED_EDGE('',*,*,#343,.T.);
#228=ORIENTED_EDGE('',*,*,#344,.T.);
#229=ORIENTED_EDGE('',*,*,#336,.T.);
#230=ORIENTED_EDGE('',*,*,#345,.T.);
#231=ORIENTED_EDGE('',*,*,#346,.F.);
#232=ORIENTED_EDGE('',*,*,#347,.T.);
#233=ORIENTED_EDGE('',*,*,#348,.T.);
#234=ORIENTED_EDGE('',*,*,#349,.T.);
#235=ORIENTED_EDGE('',*,*,#350,.T.);
#236=ORIENTED_EDGE('',*,*,#348,.F.);
#237=ORIENTED_EDGE('',*,*,#351,.T.);
#238=ORIENTED_EDGE('',*,*,#352,.T.);
#239=ORIENTED_EDGE('',*,*,#353,.T.);
#240=ORIENTED_EDGE('',*,*,#335,.T.);
#241=ORIENTED_EDGE('',*,*,#354,.T.);
#242=ORIENTED_EDGE('',*,*,#352,.F.);
#243=ORIENTED_EDGE('',*,*,#355,.T.);
#244=ORIENTED_EDGE('',*,*,#356,.T.);
#245=ORIENTED_EDGE('',*,*,#357,.T.);
#246=ORIENTED_EDGE('',*,*,#341,.T.);
#247=ORIENTED_EDGE('',*,*,#329,.F.);
#248=ORIENTED_EDGE('',*,*,#353,.F.);
#249=ORIENTED_EDGE('',*,*,#340,.F.);
#250=ORIENTED_EDGE('',*,*,#339,.F.);
#251=ORIENTED_EDGE('',*,*,#358,.T.);
#252=ORIENTED_EDGE('',*,*,#330,.F.);
#253=ORIENTED_EDGE('',*,*,#345,.F.);
#254=ORIENTED_EDGE('',*,*,#342,.F.);
#255=ORIENTED_EDGE('',*,*,#357,.F.);
#256=ORIENTED_EDGE('',*,*,#359,.F.);
#257=ORIENTED_EDGE('',*,*,#349,.F.);
#258=ORIENTED_EDGE('',*,*,#350,.F.);
#259=ORIENTED_EDGE('',*,*,#354,.F.);
#260=ORIENTED_EDGE('',*,*,#334,.T.);
#261=ORIENTED_EDGE('',*,*,#359,.T.);
#262=ORIENTED_EDGE('',*,*,#356,.F.);
#263=ORIENTED_EDGE('',*,*,#360,.T.);
#264=ORIENTED_EDGE('',*,*,#346,.T.);
#265=ORIENTED_EDGE('',*,*,#351,.F.);
#266=ORIENTED_EDGE('',*,*,#347,.F.);
#267=ORIENTED_EDGE('',*,*,#360,.F.);
#268=ORIENTED_EDGE('',*,*,#355,.F.);
#269=ORIENTED_EDGE('',*,*,#361,.T.);
#270=ORIENTED_EDGE('',*,*,#337,.T.);
#271=ORIENTED_EDGE('',*,*,#344,.F.);
#272=ORIENTED_EDGE('',*,*,#362,.F.);
#273=ORIENTED_EDGE('',*,*,#363,.T.);
#274=ORIENTED_EDGE('',*,*,#362,.T.);
#275=ORIENTED_EDGE('',*,*,#343,.F.);
#276=ORIENTED_EDGE('',*,*,#332,.F.);
#277=ORIENTED_EDGE('',*,*,#361,.F.);
#278=ORIENTED_EDGE('',*,*,#364,.T.);
#279=ORIENTED_EDGE('',*,*,#363,.F.);
#280=ORIENTED_EDGE('',*,*,#331,.F.);
#281=ORIENTED_EDGE('',*,*,#358,.F.);
#282=ORIENTED_EDGE('',*,*,#338,.F.);
#283=ORIENTED_EDGE('',*,*,#365,.F.);
#284=ORIENTED_EDGE('',*,*,#366,.F.);
#285=ORIENTED_EDGE('',*,*,#365,.T.);
#286=ORIENTED_EDGE('',*,*,#364,.F.);
#287=ORIENTED_EDGE('',*,*,#366,.T.);
#288=ORIENTED_EDGE('',*,*,#367,.T.);
#289=ORIENTED_EDGE('',*,*,#368,.T.);
#290=ORIENTED_EDGE('',*,*,#368,.F.);
#291=ORIENTED_EDGE('',*,*,#369,.T.);
#292=ORIENTED_EDGE('',*,*,#370,.T.);
#293=ORIENTED_EDGE('',*,*,#367,.F.);
#294=ORIENTED_EDGE('',*,*,#369,.F.);
#295=ORIENTED_EDGE('',*,*,#371,.F.);
#296=ORIENTED_EDGE('',*,*,#370,.F.);
#297=ORIENTED_EDGE('',*,*,#371,.T.);
#298=VERTEX_POINT('',#519);
#299=VERTEX_POINT('',#520);
#300=VERTEX_POINT('',#527);
#301=VERTEX_POINT('',#529);
#302=VERTEX_POINT('',#531);
#303=VERTEX_POINT('',#533);
#304=VERTEX_POINT('',#535);
#305=VERTEX_POINT('',#539);
#306=VERTEX_POINT('',#540);
#307=VERTEX_POINT('',#542);
#308=VERTEX_POINT('',#544);
#309=VERTEX_POINT('',#551);
#310=VERTEX_POINT('',#555);
#311=VERTEX_POINT('',#557);
#312=VERTEX_POINT('',#561);
#313=VERTEX_POINT('',#564);
#314=VERTEX_POINT('',#566);
#315=VERTEX_POINT('',#568);
#316=VERTEX_POINT('',#570);
#317=VERTEX_POINT('',#574);
#318=VERTEX_POINT('',#576);
#319=VERTEX_POINT('',#582);
#320=VERTEX_POINT('',#584);
#321=VERTEX_POINT('',#596);
#322=VERTEX_POINT('',#604);
#323=VERTEX_POINT('',#607);
#324=VERTEX_POINT('',#611);
#325=VERTEX_POINT('',#613);
#326=VERTEX_POINT('',#616);
#327=VERTEX_POINT('',#619);
#328=VERTEX_POINT('',#622);
#329=EDGE_CURVE('',#298,#299,#372,.T.);
#330=EDGE_CURVE('',#299,#300,#210,.T.);
#331=EDGE_CURVE('',#300,#301,#168,.T.);
#332=EDGE_CURVE('',#301,#302,#169,.T.);
#333=EDGE_CURVE('',#303,#302,#170,.T.);
#334=EDGE_CURVE('',#304,#303,#171,.T.);
#335=EDGE_CURVE('',#298,#304,#172,.T.);
#336=EDGE_CURVE('',#305,#306,#173,.T.);
#337=EDGE_CURVE('',#307,#305,#174,.T.);
#338=EDGE_CURVE('',#307,#308,#175,.T.);
#339=EDGE_CURVE('',#308,#309,#211,.T.);
#340=EDGE_CURVE('',#309,#310,#373,.T.);
#341=EDGE_CURVE('',#311,#310,#176,.T.);
#342=EDGE_CURVE('',#311,#306,#177,.T.);
#343=EDGE_CURVE('',#302,#312,#76,.T.);
#344=EDGE_CURVE('',#312,#305,#77,.T.);
#345=EDGE_CURVE('',#306,#313,#78,.T.);
#346=EDGE_CURVE('',#314,#313,#178,.T.);
#347=EDGE_CURVE('',#314,#315,#179,.T.);
#348=EDGE_CURVE('',#315,#316,#180,.T.);
#349=EDGE_CURVE('',#316,#303,#79,.T.);
#350=EDGE_CURVE('',#317,#316,#181,.T.);
#351=EDGE_CURVE('',#315,#318,#182,.T.);
#352=EDGE_CURVE('',#318,#317,#183,.T.);
#353=EDGE_CURVE('',#310,#298,#80,.T.);
#354=EDGE_CURVE('',#304,#317,#81,.T.);
#355=EDGE_CURVE('',#318,#319,#184,.T.);
#356=EDGE_CURVE('',#319,#320,#185,.T.);
#357=EDGE_CURVE('',#320,#311,#82,.T.);
#358=EDGE_CURVE('',#308,#300,#83,.T.);
#359=EDGE_CURVE('',#313,#320,#186,.T.);
#360=EDGE_CURVE('',#319,#314,#187,.T.);
#361=EDGE_CURVE('',#321,#307,#84,.T.);
#362=EDGE_CURVE('',#321,#312,#188,.T.);
#363=EDGE_CURVE('',#301,#321,#85,.T.);
#364=EDGE_CURVE('',#321,#321,#86,.T.);
#365=EDGE_CURVE('',#322,#322,#87,.T.);
#366=EDGE_CURVE('',#323,#323,#88,.T.);
#367=EDGE_CURVE('',#324,#324,#89,.T.);
#368=EDGE_CURVE('',#325,#325,#90,.T.);
#369=EDGE_CURVE('',#326,#326,#91,.T.);
#370=EDGE_CURVE('',#327,#327,#92,.T.);
#371=EDGE_CURVE('',#328,#328,#93,.T.);
#372=(
BOUNDED_CURVE()
B_SPLINE_CURVE(2,(#516,#517,#518),.UNSPECIFIED.,.F.,.F.)
B_SPLINE_CURVE_WITH_KNOTS((3,3),(0.,1.),.UNSPECIFIED.)
CURVE()
GEOMETRIC_REPRESENTATION_ITEM()
RATIONAL_B_SPLINE_CURVE((1.,1.00430294012952,1.))
REPRESENTATION_ITEM('')
);
#373=(
BOUNDED_CURVE()
B_SPLINE_CURVE(2,(#552,#553,#554),.UNSPECIFIED.,.F.,.F.)
B_SPLINE_CURVE_WITH_KNOTS((3,3),(0.,1.),.UNSPECIFIED.)
CURVE()
GEOMETRIC_REPRESENTATION_ITEM()
RATIONAL_B_SPLINE_CURVE((1.,1.00430294012847,1.))
REPRESENTATION_ITEM('')
);
#374=AXIS2_PLACEMENT_3D('',#515,#414,#415);
#375=AXIS2_PLACEMENT_3D('',#537,#421,#422);
#376=AXIS2_PLACEMENT_3D('',#559,#428,#429);
#377=AXIS2_PLACEMENT_3D('',#560,#430,#431);
#378=AXIS2_PLACEMENT_3D('',#562,#432,#433);
#379=AXIS2_PLACEMENT_3D('',#563,#434,#435);
#380=AXIS2_PLACEMENT_3D('',#571,#439,#440);
#381=AXIS2_PLACEMENT_3D('',#572,#441,#442);
#382=AXIS2_PLACEMENT_3D('',#578,#446,#447);
#383=AXIS2_PLACEMENT_3D('',#579,#448,#449);
#384=AXIS2_PLACEMENT_3D('',#580,#450,#451);
#385=AXIS2_PLACEMENT_3D('',#585,#454,#455);
#386=AXIS2_PLACEMENT_3D('',#586,#456,#457);
#387=AXIS2_PLACEMENT_3D('',#587,#458,#459);
#388=AXIS2_PLACEMENT_3D('',#588,#460,#461);
#389=AXIS2_PLACEMENT_3D('',#590,#463,#464);
#390=AXIS2_PLACEMENT_3D('',#591,#465,#466);
#391=AXIS2_PLACEMENT_3D('',#593,#468,#469);
#392=AXIS2_PLACEMENT_3D('',#594,#470,#471);
#393=AXIS2_PLACEMENT_3D('',#595,#472,#473);
#394=AXIS2_PLACEMENT_3D('',#598,#475,#476);
#395=AXIS2_PLACEMENT_3D('',#599,#477,#478);
#396=AXIS2_PLACEMENT_3D('',#600,#479,#480);
#397=AXIS2_PLACEMENT_3D('',#601,#481,#482);
#398=AXIS2_PLACEMENT_3D('',#602,#483,#484);
#399=AXIS2_PLACEMENT_3D('',#603,#485,#486);
#400=AXIS2_PLACEMENT_3D('',#605,#487,#488);
#401=AXIS2_PLACEMENT_3D('',#606,#489,#490);
#402=AXIS2_PLACEMENT_3D('',#608,#491,#492);
#403=AXIS2_PLACEMENT_3D('',#609,#493,#494);
#404=AXIS2_PLACEMENT_3D('',#610,#495,#496);
#405=AXIS2_PLACEMENT_3D('',#612,#497,#498);
#406=AXIS2_PLACEMENT_3D('',#614,#499,#500);
#407=AXIS2_PLACEMENT_3D('',#615,#501,#502);
#408=AXIS2_PLACEMENT_3D('',#617,#503,#504);
#409=AXIS2_PLACEMENT_3D('',#618,#505,#506);
#410=AXIS2_PLACEMENT_3D('',#620,#507,#508);
#411=AXIS2_PLACEMENT_3D('',#621,#509,#510);
#412=AXIS2_PLACEMENT_3D('',#623,#511,#512);
#413=AXIS2_PLACEMENT_3D('',#624,#513,#514);
#414=DIRECTION('',(0.,0.,1.));
#415=DIRECTION('',(1.,0.,0.));
#416=DIRECTION('',(0.,0.,-1.));
#417=DIRECTION('',(0.,-1.,0.));
#418=DIRECTION('',(0.,0.,-1.));
#419=DIRECTION('',(0.,-1.,0.));
#420=DIRECTION('',(0.,0.,1.));
#421=DIRECTION('',(1.,0.,0.));
#422=DIRECTION('',(0.,0.,1.));
#423=DIRECTION('',(0.,0.,1.));
#424=DIRECTION('',(0.,-1.,0.));
#425=DIRECTION('',(0.,0.,1.));
#426=DIRECTION('',(0.,0.,-1.));
#427=DIRECTION('',(0.,-1.,0.));
#428=DIRECTION('',(-1.,0.,0.));
#429=DIRECTION('',(0.,0.,-1.));
#430=DIRECTION('',(0.,-1.,0.));
#431=DIRECTION('',(-1.,0.,0.));
#432=DIRECTION('',(0.,-1.,0.));
#433=DIRECTION('',(-1.,0.,0.));
#434=DIRECTION('',(0.,1.,0.));
#435=DIRECTION('',(-1.,0.,0.));
#436=DIRECTION('',(0.,0.,-1.));
#437=DIRECTION('',(-1.,0.,0.));
#438=DIRECTION('',(0.,0.,-1.));
#439=DIRECTION('',(0.,1.,0.));
#440=DIRECTION('',(0.,0.,1.));
#441=DIRECTION('',(0.,-1.,0.));
#442=DIRECTION('',(0.,0.,1.));
#443=DIRECTION('',(0.,-1.,0.));
#444=DIRECTION('',(0.,1.,0.));
#445=DIRECTION('',(0.,0.,-1.));
#446=DIRECTION('',(-1.,0.,0.));
#447=DIRECTION('',(0.,0.,-1.));
#448=DIRECTION('',(0.,-1.,0.));
#449=DIRECTION('',(0.,0.,-1.));
#450=DIRECTION('',(0.,-1.,0.));
#451=DIRECTION('',(0.,0.,1.));
#452=DIRECTION('',(1.,0.,0.));
#453=DIRECTION('',(0.,0.,-1.));
#454=DIRECTION('',(0.,-1.,0.));
#455=DIRECTION('',(-1.,0.,0.));
#456=DIRECTION('',(0.,1.,0.));
#457=DIRECTION('',(0.,0.,-1.));
#458=DIRECTION('',(0.,-1.,0.));
#459=DIRECTION('',(0.,0.,1.));
#460=DIRECTION('',(0.,1.,0.));
#461=DIRECTION('',(0.,3.99980738996567E-16,1.));
#462=DIRECTION('',(0.,1.,0.));
#463=DIRECTION('',(0.,-1.,0.));
#464=DIRECTION('',(1.,0.,0.));
#465=DIRECTION('',(0.,-1.,0.));
#466=DIRECTION('',(0.,0.,-1.));
#467=DIRECTION('',(0.,-1.,0.));
#468=DIRECTION('',(1.,0.,0.));
#469=DIRECTION('',(0.,0.,1.));
#470=DIRECTION('',(0.,0.,-1.));
#471=DIRECTION('',(0.,-1.,0.));
#472=DIRECTION('',(0.,-1.,0.));
#473=DIRECTION('',(0.,0.,1.));
#474=DIRECTION('',(0.,-1.,0.));
#475=DIRECTION('',(0.,-1.,0.));
#476=DIRECTION('',(1.,0.,0.));
#477=DIRECTION('',(0.,-1.,0.));
#478=DIRECTION('',(0.,0.,1.));
#479=DIRECTION('',(0.,-1.,0.));
#480=DIRECTION('',(1.,0.,0.));
#481=DIRECTION('',(0.,-1.,0.));
#482=DIRECTION('',(-0.559870761342682,0.,-0.82857994822079));
#483=DIRECTION('',(0.,1.,0.));
#484=DIRECTION('',(0.,0.,-1.));
#485=DIRECTION('',(0.,-1.,0.));
#486=DIRECTION('',(-0.559870761342682,0.,-0.828579948220788));
#487=DIRECTION('',(0.,1.,0.));
#488=DIRECTION('',(-0.828579948220789,0.,0.559870761342682));
#489=DIRECTION('',(0.,-1.,0.));
#490=DIRECTION('',(-0.559870761342682,0.,-0.828579948220787));
#491=DIRECTION('',(0.,-1.,0.));
#492=DIRECTION('',(0.559870761342682,0.,0.828579948220787));
#493=DIRECTION('',(0.,1.,0.));
#494=DIRECTION('',(0.559870761342682,7.52925602396836E-17,0.828579948220789));
#495=DIRECTION('',(0.,-1.,0.));
#496=DIRECTION('',(-0.996991192570778,0.,0.0775149142829835));
#497=DIRECTION('',(0.,1.,0.));
#498=DIRECTION('',(-0.996991192570778,0.,0.0775149142829834));
#499=DIRECTION('',(0.,-1.,0.));
#500=DIRECTION('',(0.996991192570778,-2.75831807360288E-17,-0.077514914282985));
#501=DIRECTION('',(0.,1.,0.));
#502=DIRECTION('',(0.,0.,1.));
#503=DIRECTION('',(2.32538325454327E-16,-1.,-1.80795863588548E-17));
#504=DIRECTION('',(-0.996991192570778,0.,0.0775149142829834));
#505=DIRECTION('',(0.,-1.,0.));
#506=DIRECTION('',(0.996991192570778,0.,-0.0775149142829839));
#507=DIRECTION('',(0.,-1.,0.));
#508=DIRECTION('',(0.077514914282985,0.,0.996991192570778));
#509=DIRECTION('',(0.,-1.,0.));
#510=DIRECTION('',(0.996991192570778,0.,-0.0775149142829834));
#511=DIRECTION('',(0.,1.,0.));
#512=DIRECTION('',(-0.077514914282985,0.,-0.996991192570778));
#513=DIRECTION('',(-2.32538325454327E-16,1.,1.80795863588548E-17));
#514=DIRECTION('',(-0.996991192570778,-1.00418068914864E-16,0.0775149142829851));
#515=CARTESIAN_POINT('',(0.,0.,0.));
#516=CARTESIAN_POINT('',(11.0000000000001,50.,-376.254033307585));
#517=CARTESIAN_POINT('',(11.0000000000001,44.1664696317438,-377.733549020931));
#518=CARTESIAN_POINT('',(11.0000000000001,40.48,-379.104976030385));
#519=CARTESIAN_POINT('',(11.0000000000001,50.,-376.254033307585));
#520=CARTESIAN_POINT('',(11.0000000000001,40.48,-379.104976030385));
#521=CARTESIAN_POINT('',(11.0000000000001,40.48,-379.104976030385));
#522=CARTESIAN_POINT('',(11.0000000000001,39.3159640117093,-379.538016460333));
#523=CARTESIAN_POINT('',(11.0000000000001,38.1697304010837,-380.008448461024));
#524=CARTESIAN_POINT('',(11.0000000000001,35.9705856965057,-381.145324228346));
#525=CARTESIAN_POINT('',(11.0000000000001,34.8260329139556,-381.786954281103));
#526=CARTESIAN_POINT('',(11.0000000000001,34.1199999999989,-382.813580601033));
#527=CARTESIAN_POINT('',(11.0000000000001,34.12,-382.813580601033));
#528=CARTESIAN_POINT('',(11.0000000000001,34.12,-420.967450202559));
#529=CARTESIAN_POINT('',(11.0000000000001,34.12,-383.5));
#530=CARTESIAN_POINT('',(11.0000000000001,34.12,-383.5));
#531=CARTESIAN_POINT('',(11.0000000000001,0.,-383.5));
#532=CARTESIAN_POINT('',(11.0000000000001,0.,-340.));
#533=CARTESIAN_POINT('',(11.0000000000001,0.,-340.));
#534=CARTESIAN_POINT('',(11.0000000000001,50.,-340.));
#535=CARTESIAN_POINT('',(11.0000000000001,50.,-340.));
#536=CARTESIAN_POINT('',(11.0000000000001,50.,-376.254033307585));
#537=CARTESIAN_POINT('',(11.0000000000001,50.,-340.));
#538=CARTESIAN_POINT('',(39.0000000000001,-8.881784E-15,-383.5));
#539=CARTESIAN_POINT('',(39.0000000000001,-8.881784E-15,-383.5));
#540=CARTESIAN_POINT('',(39.0000000000001,-8.881784E-15,-340.));
#541=CARTESIAN_POINT('',(39.0000000000001,34.12,-383.5));
#542=CARTESIAN_POINT('',(39.0000000000001,34.12,-383.5));
#543=CARTESIAN_POINT('',(39.0000000000001,34.12,-420.967450202559));
#544=CARTESIAN_POINT('',(39.0000000000001,34.12,-382.813580601035));
#545=CARTESIAN_POINT('',(39.0000000000001,34.1199999999989,-382.813580601034));
#546=CARTESIAN_POINT('',(39.0000000000001,34.8260329139552,-381.786954281104));
#547=CARTESIAN_POINT('',(39.0000000000001,35.9705856965054,-381.145324228347));
#548=CARTESIAN_POINT('',(39.0000000000001,38.1697304010835,-380.008448461024));
#549=CARTESIAN_POINT('',(39.0000000000001,39.3159640117092,-379.538016460333));
#550=CARTESIAN_POINT('',(39.0000000000001,40.4799999999999,-379.104976030386));
#551=CARTESIAN_POINT('',(39.0000000000001,40.48,-379.104976030386));
#552=CARTESIAN_POINT('',(39.0000000000001,40.48,-379.104976030386));
#553=CARTESIAN_POINT('',(39.0000000000001,44.1664696317442,-377.733549020931));
#554=CARTESIAN_POINT('',(39.0000000000001,50.,-376.254033307585));
#555=CARTESIAN_POINT('',(39.0000000000001,50.,-376.254033307585));
#556=CARTESIAN_POINT('',(39.,50.,-340.));
#557=CARTESIAN_POINT('',(39.0000000000001,50.,-340.));
#558=CARTESIAN_POINT('',(39.0000000000001,50.,-340.));
#559=CARTESIAN_POINT('',(39.0000000000001,50.,-383.5));
#560=CARTESIAN_POINT('',(25.0000000000001,0.,-383.5));
#561=CARTESIAN_POINT('',(25.0000000000001,-8.881784E-15,-397.5));
#562=CARTESIAN_POINT('',(25.0000000000001,0.,-383.5));
#563=CARTESIAN_POINT('',(67.0000000000001,0.,-340.));
#564=CARTESIAN_POINT('',(50.,-8.881784E-15,-317.751404538713));
#565=CARTESIAN_POINT('',(50.,-8.881784E-15,0.));
#566=CARTESIAN_POINT('',(50.,-8.881784E-15,0.));
#567=CARTESIAN_POINT('',(50.,-8.881784E-15,0.));
#568=CARTESIAN_POINT('',(0.,0.,0.));
#569=CARTESIAN_POINT('',(0.,0.,0.));
#570=CARTESIAN_POINT('',(0.,0.,-317.751404538713));
#571=CARTESIAN_POINT('',(-16.9999999999999,0.,-340.));
#572=CARTESIAN_POINT('',(0.,0.,0.));
#573=CARTESIAN_POINT('',(0.,50.,-317.751404538713));
#574=CARTESIAN_POINT('',(0.,50.,-317.751404538713));
#575=CARTESIAN_POINT('',(0.,0.,0.));
#576=CARTESIAN_POINT('',(0.,50.,0.));
#577=CARTESIAN_POINT('',(0.,50.,0.));
#578=CARTESIAN_POINT('',(0.,50.,0.));
#579=CARTESIAN_POINT('',(25.,50.,-384.));
#580=CARTESIAN_POINT('',(-16.9999999999999,50.,-340.));
#581=CARTESIAN_POINT('',(0.,50.,0.));
#582=CARTESIAN_POINT('',(50.,50.,0.));
#583=CARTESIAN_POINT('',(50.,50.,0.));
#584=CARTESIAN_POINT('',(50.,50.,-317.751404538713));
#585=CARTESIAN_POINT('',(67.0000000000001,50.,-340.));
#586=CARTESIAN_POINT('',(50.,50.,0.));
#587=CARTESIAN_POINT('',(25.,34.12,-384.));
#588=CARTESIAN_POINT('',(25.,50.,-384.));
#589=CARTESIAN_POINT('',(50.,-7.105427E-15,-317.751404538713));
#590=CARTESIAN_POINT('',(67.0000000000001,50.,-340.));
#591=CARTESIAN_POINT('',(-16.9999999999999,50.,-340.));
#592=CARTESIAN_POINT('',(50.,50.,0.));
#593=CARTESIAN_POINT('',(50.,-8.881784E-15,0.));
#594=CARTESIAN_POINT('',(25.,25.,0.));
#595=CARTESIAN_POINT('',(25.0000000000001,34.12,-383.5));
#596=CARTESIAN_POINT('',(24.9999999999992,34.1199999999999,-397.5));
#597=CARTESIAN_POINT('',(25.0000000000001,34.12,-397.5));
#598=CARTESIAN_POINT('',(25.0000000000001,50.,-383.5));
#599=CARTESIAN_POINT('',(25.0000000000001,34.12,-383.5));
#600=CARTESIAN_POINT('',(25.0000000000001,50.,-383.5));
#601=CARTESIAN_POINT('',(25.,34.1199999999999,-384.));
#602=CARTESIAN_POINT('',(32.8419340760645,34.12,-420.967450202559));
#603=CARTESIAN_POINT('',(25.,40.4799999999999,-384.));
#604=CARTESIAN_POINT('',(17.1618093412025,40.4799999999999,-395.600119275091));
#605=CARTESIAN_POINT('',(18.9358867613401,40.4799999999999,-392.974575884699));
#606=CARTESIAN_POINT('',(25.,34.6199999999999,-384.));
#607=CARTESIAN_POINT('',(17.1618093412025,34.6199999999999,-395.600119275091));
#608=CARTESIAN_POINT('',(25.,37.5499999999999,-384.));
#609=CARTESIAN_POINT('',(25.,34.3699999999999,-384.));
#610=CARTESIAN_POINT('',(25.,40.48,-384.));
#611=CARTESIAN_POINT('',(31.4804427517101,40.48,-384.503846942839));
#612=CARTESIAN_POINT('',(25.,40.98,-384.));
#613=CARTESIAN_POINT('',(30.9819471554247,40.98,-384.465089485698));
#614=CARTESIAN_POINT('',(25.,40.73,-384.));
#615=CARTESIAN_POINT('',(25.,50.,-384.));
#616=CARTESIAN_POINT('',(25.,50.,-378.));
#617=CARTESIAN_POINT('',(25.,45.24,-384.));
#618=CARTESIAN_POINT('',(25.,40.48,-384.));
#619=CARTESIAN_POINT('',(39.7864670834797,40.48,-385.149630746054));
#620=CARTESIAN_POINT('',(35.3842071194522,40.48,-384.807360115876));
#621=CARTESIAN_POINT('',(25.,50.,-384.));
#622=CARTESIAN_POINT('',(40.9518590811325,50.,-385.240238628528));
#623=CARTESIAN_POINT('',(35.9669031182786,50.,-384.852664057113));
#624=CARTESIAN_POINT('',(25.,45.24,-384.));
#625=MECHANICAL_DESIGN_GEOMETRIC_PRESENTATION_REPRESENTATION('',(#33,#34),
#626);
#626=(
GEOMETRIC_REPRESENTATION_CONTEXT(3)
GLOBAL_UNCERTAINTY_ASSIGNED_CONTEXT((#627))
GLOBAL_UNIT_ASSIGNED_CONTEXT((#633,#629,#628))
REPRESENTATION_CONTEXT('PRDCN5050V32','TOP_LEVEL_ASSEMBLY_PART')
);
#627=UNCERTAINTY_MEASURE_WITH_UNIT(LENGTH_MEASURE(0.0508),#633,
'DISTANCE_ACCURACY_VALUE','Maximum Tolerance applied to model');
#628=(
NAMED_UNIT(*)
SI_UNIT($,.STERADIAN.)
SOLID_ANGLE_UNIT()
);
#629=(
CONVERSION_BASED_UNIT('DEGREE',#631)
NAMED_UNIT(#630)
PLANE_ANGLE_UNIT()
);
#630=DIMENSIONAL_EXPONENTS(0.,0.,0.,0.,0.,0.,0.);
#631=PLANE_ANGLE_MEASURE_WITH_UNIT(PLANE_ANGLE_MEASURE(0.0174532925),#632);
#632=(
NAMED_UNIT(*)
PLANE_ANGLE_UNIT()
SI_UNIT($,.RADIAN.)
);
#633=(
LENGTH_UNIT()
NAMED_UNIT(*)
SI_UNIT(.MILLI.,.METRE.)
);
ENDSEC;
END-ISO-10303-21;
