ISO-10303-21;
HEADER;
/* Generated by software containing ST-Developer
 * from STEP Tools, Inc. (www.steptools.com) 
 */
/* OPTION: using custom schema-name function */

FILE_DESCRIPTION(
/* description */ (''),
/* implementation_level */ '2;1');

FILE_NAME(
/* name */ 'PPH0802QC08130HSCW_112226091ndi000_00_SIM.stp',
/* time_stamp */ '2020-01-27T12:20:18+01:00',
/* author */ (''),
/* organization */ (''),
/* preprocessor_version */ 'ST-DEVELOPER v16.7',
/* originating_system */ 'SIEMENS PLM Software NX 12.0',
/* authorisation */ '');

FILE_SCHEMA (('AUTOMOTIVE_DESIGN { 1 0 10303 214 3 1 1 1 }'));
ENDSEC;

DATA;
#10=PROPERTY_DEFINITION_REPRESENTATION(#14,#12);
#11=PROPERTY_DEFINITION_REPRESENTATION(#15,#13);
#12=REPRESENTATION('',(#16),#389);
#13=REPRESENTATION('',(#17),#389);
#14=PROPERTY_DEFINITION('pmi validation property','',#21);
#15=PROPERTY_DEFINITION('pmi validation property','',#21);
#16=VALUE_REPRESENTATION_ITEM('number of annotations',COUNT_MEASURE(0.));
#17=VALUE_REPRESENTATION_ITEM('number of views',COUNT_MEASURE(0.));
#18=SHAPE_REPRESENTATION_RELATIONSHIP('None',
'relationship between pp071F1833E2r54b-None and pp071F1833E2r54b-None',
#30,#19);
#19=ADVANCED_BREP_SHAPE_REPRESENTATION('pp071F1833E2r54b-None',(#65,#66,
#67),#389);
#20=SHAPE_DEFINITION_REPRESENTATION(#21,#30);
#21=PRODUCT_DEFINITION_SHAPE('','',#22);
#22=PRODUCT_DEFINITION(' ','',#24,#23);
#23=PRODUCT_DEFINITION_CONTEXT('part definition',#29,'design');
#24=PRODUCT_DEFINITION_FORMATION_WITH_SPECIFIED_SOURCE(' ',' ',#26,
 .NOT_KNOWN.);
#25=PRODUCT_RELATED_PRODUCT_CATEGORY('part','',(#26));
#26=PRODUCT('pp071F1833E2r54b','pp071F1833E2r54b',' ',(#27));
#27=PRODUCT_CONTEXT(' ',#29,'mechanical');
#28=APPLICATION_PROTOCOL_DEFINITION('international standard',
'automotive_design',2010,#29);
#29=APPLICATION_CONTEXT(
'core data for automotive mechanical design processes');
#30=SHAPE_REPRESENTATION('pp071F1833E2r54b-None',(#233),#389);
#31=VERTEX_LOOP('',#204);
#32=CONICAL_SURFACE('',#255,2.90779946162075,30.);
#33=CONICAL_SURFACE('',#260,3.675,30.);
#34=TOROIDAL_SURFACE('',#250,4.675,1.);
#35=TOROIDAL_SURFACE('',#257,4.475,1.);
#36=CYLINDRICAL_SURFACE('',#247,3.475);
#37=CYLINDRICAL_SURFACE('',#252,3.99875);
#38=CYLINDRICAL_SURFACE('',#259,3.475);
#39=SPHERICAL_SURFACE('',#245,3.5625);
#40=PRESENTATION_LAYER_ASSIGNMENT('96','Layer 96',(#65));
#41=PRESENTATION_LAYER_ASSIGNMENT('14','Layer 14',(#66,#67));
#42=STYLED_ITEM('',(#45),#65);
#43=STYLED_ITEM('',(#46),#66);
#44=STYLED_ITEM('',(#47),#67);
#45=PRESENTATION_STYLE_ASSIGNMENT((#48));
#46=PRESENTATION_STYLE_ASSIGNMENT((#49));
#47=PRESENTATION_STYLE_ASSIGNMENT((#50));
#48=SURFACE_STYLE_USAGE(.BOTH.,#51);
#49=SURFACE_STYLE_USAGE(.BOTH.,#52);
#50=SURFACE_STYLE_USAGE(.BOTH.,#53);
#51=SURFACE_SIDE_STYLE('',(#54));
#52=SURFACE_SIDE_STYLE('',(#55));
#53=SURFACE_SIDE_STYLE('',(#56));
#54=SURFACE_STYLE_FILL_AREA(#57);
#55=SURFACE_STYLE_FILL_AREA(#58);
#56=SURFACE_STYLE_FILL_AREA(#59);
#57=FILL_AREA_STYLE('',(#60));
#58=FILL_AREA_STYLE('',(#61));
#59=FILL_AREA_STYLE('',(#62));
#60=FILL_AREA_STYLE_COLOUR('',#63);
#61=FILL_AREA_STYLE_COLOUR('',#64);
#62=FILL_AREA_STYLE_COLOUR('',#64);
#63=COLOUR_RGB('Light Gray',0.8,0.8,0.8);
#64=COLOUR_RGB('Silver Gray',0.6,0.6,0.6);
#65=MANIFOLD_SOLID_BREP('',#68);
#66=MANIFOLD_SOLID_BREP('',#69);
#67=MANIFOLD_SOLID_BREP('',#70);
#68=CLOSED_SHELL('',(#107,#108,#109,#110,#111,#112));
#69=CLOSED_SHELL('',(#113,#114,#115,#116));
#70=CLOSED_SHELL('',(#117,#118,#119,#120,#121,#122,#123));
#71=(
BOUNDED_CURVE()
B_SPLINE_CURVE(3,(#339,#340,#341,#342),.UNSPECIFIED.,.F.,.F.)
B_SPLINE_CURVE_WITH_KNOTS((4,4),(0.,1.),.UNSPECIFIED.)
CURVE()
GEOMETRIC_REPRESENTATION_ITEM()
RATIONAL_B_SPLINE_CURVE((1.,0.690820433891664,0.690820433891664,1.))
REPRESENTATION_ITEM('')
);
#72=(
BOUNDED_CURVE()
B_SPLINE_CURVE(3,(#353,#354,#355,#356),.UNSPECIFIED.,.F.,.F.)
B_SPLINE_CURVE_WITH_KNOTS((4,4),(0.,1.),.UNSPECIFIED.)
CURVE()
GEOMETRIC_REPRESENTATION_ITEM()
RATIONAL_B_SPLINE_CURVE((1.,0.992977386015632,0.992977386015632,1.))
REPRESENTATION_ITEM('')
);
#73=SURFACE_OF_REVOLUTION('',#81,#77);
#74=SURFACE_OF_REVOLUTION('',#71,#78);
#75=SURFACE_OF_REVOLUTION('',#82,#79);
#76=SURFACE_OF_REVOLUTION('',#72,#80);
#77=AXIS1_PLACEMENT('',#336,#273);
#78=AXIS1_PLACEMENT('',#343,#276);
#79=AXIS1_PLACEMENT('',#352,#279);
#80=AXIS1_PLACEMENT('',#357,#280);
#81=B_SPLINE_CURVE_WITH_KNOTS('',3,(#330,#331,#332,#333,#334,#335),
 .UNSPECIFIED.,.F.,.F.,(4,2,4),(0.,0.5,1.),.UNSPECIFIED.);
#82=B_SPLINE_CURVE_WITH_KNOTS('',3,(#346,#347,#348,#349,#350,#351),
 .UNSPECIFIED.,.F.,.F.,(4,2,4),(0.,0.5,1.),.UNSPECIFIED.);
#83=FACE_BOUND('',#136,.T.);
#84=FACE_BOUND('',#137,.T.);
#85=FACE_BOUND('',#138,.T.);
#86=FACE_BOUND('',#139,.T.);
#87=FACE_BOUND('',#140,.T.);
#88=FACE_BOUND('',#141,.T.);
#89=FACE_BOUND('',#142,.T.);
#90=FACE_BOUND('',#143,.T.);
#91=FACE_BOUND('',#145,.T.);
#92=FACE_BOUND('',#146,.T.);
#93=FACE_BOUND('',#148,.T.);
#94=FACE_BOUND('',#149,.T.);
#95=FACE_BOUND('',#150,.T.);
#96=FACE_BOUND('',#151,.T.);
#97=FACE_BOUND('',#152,.T.);
#98=FACE_BOUND('',#153,.T.);
#99=FACE_BOUND('',#155,.T.);
#100=FACE_BOUND('',#156,.T.);
#101=FACE_BOUND('',#157,.T.);
#102=FACE_BOUND('',#158,.T.);
#103=FACE_BOUND('',#159,.T.);
#104=FACE_BOUND('',#160,.T.);
#105=FACE_BOUND('',#161,.T.);
#106=FACE_BOUND('',#31,.T.);
#107=ADVANCED_FACE('',(#129),#124,.T.);
#108=ADVANCED_FACE('',(#130),#125,.T.);
#109=ADVANCED_FACE('',(#83,#84),#73,.F.);
#110=ADVANCED_FACE('',(#85,#86),#74,.F.);
#111=ADVANCED_FACE('',(#87,#88),#75,.F.);
#112=ADVANCED_FACE('',(#89,#90),#76,.F.);
#113=ADVANCED_FACE('',(#131),#126,.T.);
#114=ADVANCED_FACE('',(#91,#92),#39,.T.);
#115=ADVANCED_FACE('',(#132),#127,.T.);
#116=ADVANCED_FACE('',(#93,#94),#36,.T.);
#117=ADVANCED_FACE('',(#95,#96),#34,.F.);
#118=ADVANCED_FACE('',(#97,#98),#37,.T.);
#119=ADVANCED_FACE('',(#133),#128,.T.);
#120=ADVANCED_FACE('',(#99,#100),#32,.T.);
#121=ADVANCED_FACE('',(#101,#102),#35,.F.);
#122=ADVANCED_FACE('',(#103,#104),#38,.T.);
#123=ADVANCED_FACE('',(#105,#106),#33,.T.);
#124=PLANE('',#235);
#125=PLANE('',#237);
#126=PLANE('',#242);
#127=PLANE('',#246);
#128=PLANE('',#254);
#129=FACE_OUTER_BOUND('',#134,.T.);
#130=FACE_OUTER_BOUND('',#135,.T.);
#131=FACE_OUTER_BOUND('',#144,.T.);
#132=FACE_OUTER_BOUND('',#147,.T.);
#133=FACE_OUTER_BOUND('',#154,.T.);
#134=EDGE_LOOP('',(#162));
#135=EDGE_LOOP('',(#163));
#136=EDGE_LOOP('',(#164));
#137=EDGE_LOOP('',(#165));
#138=EDGE_LOOP('',(#166));
#139=EDGE_LOOP('',(#167));
#140=EDGE_LOOP('',(#168));
#141=EDGE_LOOP('',(#169));
#142=EDGE_LOOP('',(#170));
#143=EDGE_LOOP('',(#171));
#144=EDGE_LOOP('',(#172));
#145=EDGE_LOOP('',(#173));
#146=EDGE_LOOP('',(#174));
#147=EDGE_LOOP('',(#175));
#148=EDGE_LOOP('',(#176));
#149=EDGE_LOOP('',(#177));
#150=EDGE_LOOP('',(#178));
#151=EDGE_LOOP('',(#179));
#152=EDGE_LOOP('',(#180));
#153=EDGE_LOOP('',(#181));
#154=EDGE_LOOP('',(#182));
#155=EDGE_LOOP('',(#183));
#156=EDGE_LOOP('',(#184));
#157=EDGE_LOOP('',(#185));
#158=EDGE_LOOP('',(#186));
#159=EDGE_LOOP('',(#187));
#160=EDGE_LOOP('',(#188));
#161=EDGE_LOOP('',(#189));
#162=ORIENTED_EDGE('',*,*,#205,.T.);
#163=ORIENTED_EDGE('',*,*,#206,.F.);
#164=ORIENTED_EDGE('',*,*,#206,.T.);
#165=ORIENTED_EDGE('',*,*,#207,.F.);
#166=ORIENTED_EDGE('',*,*,#207,.T.);
#167=ORIENTED_EDGE('',*,*,#208,.F.);
#168=ORIENTED_EDGE('',*,*,#208,.T.);
#169=ORIENTED_EDGE('',*,*,#209,.F.);
#170=ORIENTED_EDGE('',*,*,#209,.T.);
#171=ORIENTED_EDGE('',*,*,#205,.F.);
#172=ORIENTED_EDGE('',*,*,#210,.F.);
#173=ORIENTED_EDGE('',*,*,#211,.T.);
#174=ORIENTED_EDGE('',*,*,#212,.T.);
#175=ORIENTED_EDGE('',*,*,#211,.F.);
#176=ORIENTED_EDGE('',*,*,#212,.F.);
#177=ORIENTED_EDGE('',*,*,#210,.T.);
#178=ORIENTED_EDGE('',*,*,#213,.T.);
#179=ORIENTED_EDGE('',*,*,#214,.F.);
#180=ORIENTED_EDGE('',*,*,#215,.F.);
#181=ORIENTED_EDGE('',*,*,#214,.T.);
#182=ORIENTED_EDGE('',*,*,#216,.T.);
#183=ORIENTED_EDGE('',*,*,#216,.F.);
#184=ORIENTED_EDGE('',*,*,#215,.T.);
#185=ORIENTED_EDGE('',*,*,#217,.F.);
#186=ORIENTED_EDGE('',*,*,#213,.F.);
#187=ORIENTED_EDGE('',*,*,#218,.T.);
#188=ORIENTED_EDGE('',*,*,#217,.T.);
#189=ORIENTED_EDGE('',*,*,#218,.F.);
#190=VERTEX_POINT('',#323);
#191=VERTEX_POINT('',#326);
#192=VERTEX_POINT('',#329);
#193=VERTEX_POINT('',#338);
#194=VERTEX_POINT('',#345);
#195=VERTEX_POINT('',#359);
#196=VERTEX_POINT('',#362);
#197=VERTEX_POINT('',#364);
#198=VERTEX_POINT('',#369);
#199=VERTEX_POINT('',#371);
#200=VERTEX_POINT('',#374);
#201=VERTEX_POINT('',#377);
#202=VERTEX_POINT('',#381);
#203=VERTEX_POINT('',#384);
#204=VERTEX_POINT('',#386);
#205=EDGE_CURVE('',#190,#190,#219,.T.);
#206=EDGE_CURVE('',#191,#191,#220,.T.);
#207=EDGE_CURVE('',#192,#192,#221,.T.);
#208=EDGE_CURVE('',#193,#193,#222,.T.);
#209=EDGE_CURVE('',#194,#194,#223,.T.);
#210=EDGE_CURVE('',#195,#195,#224,.T.);
#211=EDGE_CURVE('',#196,#196,#225,.T.);
#212=EDGE_CURVE('',#197,#197,#226,.T.);
#213=EDGE_CURVE('',#198,#198,#227,.T.);
#214=EDGE_CURVE('',#199,#199,#228,.T.);
#215=EDGE_CURVE('',#200,#200,#229,.T.);
#216=EDGE_CURVE('',#201,#201,#230,.T.);
#217=EDGE_CURVE('',#202,#202,#231,.T.);
#218=EDGE_CURVE('',#203,#203,#232,.T.);
#219=CIRCLE('',#234,2.64582077293606);
#220=CIRCLE('',#236,0.0488013446651123);
#221=CIRCLE('',#238,0.248342994368561);
#222=CIRCLE('',#239,3.50500870745648);
#223=CIRCLE('',#240,3.39285179755786);
#224=CIRCLE('',#241,3.475);
#225=CIRCLE('',#243,2.53799256303087);
#226=CIRCLE('',#244,3.475);
#227=CIRCLE('',#248,3.85926196077829);
#228=CIRCLE('',#249,3.99875);
#229=CIRCLE('',#251,3.99875);
#230=CIRCLE('',#253,2.90779946162075);
#231=CIRCLE('',#256,3.475);
#232=CIRCLE('',#258,3.475);
#233=AXIS2_PLACEMENT_3D('',#321,#261,#262);
#234=AXIS2_PLACEMENT_3D('',#322,#263,#264);
#235=AXIS2_PLACEMENT_3D('',#324,#265,#266);
#236=AXIS2_PLACEMENT_3D('',#325,#267,#268);
#237=AXIS2_PLACEMENT_3D('',#327,#269,#270);
#238=AXIS2_PLACEMENT_3D('',#328,#271,#272);
#239=AXIS2_PLACEMENT_3D('',#337,#274,#275);
#240=AXIS2_PLACEMENT_3D('',#344,#277,#278);
#241=AXIS2_PLACEMENT_3D('',#358,#281,#282);
#242=AXIS2_PLACEMENT_3D('',#360,#283,#284);
#243=AXIS2_PLACEMENT_3D('',#361,#285,#286);
#244=AXIS2_PLACEMENT_3D('',#363,#287,#288);
#245=AXIS2_PLACEMENT_3D('',#365,#289,#290);
#246=AXIS2_PLACEMENT_3D('',#366,#291,#292);
#247=AXIS2_PLACEMENT_3D('',#367,#293,#294);
#248=AXIS2_PLACEMENT_3D('',#368,#295,#296);
#249=AXIS2_PLACEMENT_3D('',#370,#297,#298);
#250=AXIS2_PLACEMENT_3D('',#372,#299,#300);
#251=AXIS2_PLACEMENT_3D('',#373,#301,#302);
#252=AXIS2_PLACEMENT_3D('',#375,#303,#304);
#253=AXIS2_PLACEMENT_3D('',#376,#305,#306);
#254=AXIS2_PLACEMENT_3D('',#378,#307,#308);
#255=AXIS2_PLACEMENT_3D('',#379,#309,#310);
#256=AXIS2_PLACEMENT_3D('',#380,#311,#312);
#257=AXIS2_PLACEMENT_3D('',#382,#313,#314);
#258=AXIS2_PLACEMENT_3D('',#383,#315,#316);
#259=AXIS2_PLACEMENT_3D('',#385,#317,#318);
#260=AXIS2_PLACEMENT_3D('',#387,#319,#320);
#261=DIRECTION('',(0.,0.,1.));
#262=DIRECTION('',(1.,0.,0.));
#263=DIRECTION('',(0.,0.,1.));
#264=DIRECTION('',(1.,0.,0.));
#265=DIRECTION('',(0.,0.,1.));
#266=DIRECTION('',(1.,0.,0.));
#267=DIRECTION('',(0.,0.,1.));
#268=DIRECTION('',(1.,0.,0.));
#269=DIRECTION('',(0.,0.,-1.));
#270=DIRECTION('',(-1.,0.,0.));
#271=DIRECTION('',(0.,0.,1.));
#272=DIRECTION('',(1.,0.,0.));
#273=DIRECTION('',(0.,0.,1.));
#274=DIRECTION('',(0.,0.,1.));
#275=DIRECTION('',(1.,0.,0.));
#276=DIRECTION('',(0.,0.,1.));
#277=DIRECTION('',(0.,0.,1.));
#278=DIRECTION('',(1.,0.,0.));
#279=DIRECTION('',(0.,0.,1.));
#280=DIRECTION('',(0.,0.,1.));
#281=DIRECTION('',(0.,0.,-1.));
#282=DIRECTION('',(0.,-1.,0.));
#283=DIRECTION('',(0.,0.,1.));
#284=DIRECTION('',(1.,0.,0.));
#285=DIRECTION('',(0.,0.,1.));
#286=DIRECTION('',(0.,1.,0.));
#287=DIRECTION('',(0.,0.,-1.));
#288=DIRECTION('',(0.,-1.,0.));
#289=DIRECTION('',(6.12323399573677E-17,0.,-0.999999999999999));
#290=DIRECTION('',(1.,0.,0.));
#291=DIRECTION('',(0.,0.,-1.));
#292=DIRECTION('',(0.,1.,0.));
#293=DIRECTION('',(0.,0.,-1.));
#294=DIRECTION('',(0.,1.,0.));
#295=DIRECTION('',(0.,0.,1.));
#296=DIRECTION('',(0.,-1.,0.));
#297=DIRECTION('',(0.,0.,1.));
#298=DIRECTION('',(0.,1.,0.));
#299=DIRECTION('',(0.,0.,1.));
#300=DIRECTION('',(0.,1.,0.));
#301=DIRECTION('',(0.,0.,1.));
#302=DIRECTION('',(0.,1.,0.));
#303=DIRECTION('',(0.,0.,-1.));
#304=DIRECTION('',(0.,1.,0.));
#305=DIRECTION('',(0.,0.,1.));
#306=DIRECTION('',(0.,1.,0.));
#307=DIRECTION('',(0.,0.,1.));
#308=DIRECTION('',(0.,1.,0.));
#309=DIRECTION('',(0.,0.,-1.));
#310=DIRECTION('',(0.,-1.,0.));
#311=DIRECTION('',(0.,0.,-1.));
#312=DIRECTION('',(0.,-1.,0.));
#313=DIRECTION('',(0.,0.,1.));
#314=DIRECTION('',(0.,-1.,0.));
#315=DIRECTION('',(0.,0.,1.));
#316=DIRECTION('',(0.,-1.,0.));
#317=DIRECTION('',(0.,0.,-1.));
#318=DIRECTION('',(0.,1.,0.));
#319=DIRECTION('',(0.,0.,1.));
#320=DIRECTION('',(0.,1.,7.1654996144162E-17));
#321=CARTESIAN_POINT('',(0.,0.,0.));
#322=CARTESIAN_POINT('',(0.,0.,-87.0022486121389));
#323=CARTESIAN_POINT('',(2.64582077293606,0.,-87.0022486121389));
#324=CARTESIAN_POINT('',(0.,0.,-87.0022486121389));
#325=CARTESIAN_POINT('',(0.,0.,-93.9932479854197));
#326=CARTESIAN_POINT('',(0.0488013446651123,0.,-93.9932479854197));
#327=CARTESIAN_POINT('',(-0.00223802173697393,0.0487499999996417,-93.9932479854197));
#328=CARTESIAN_POINT('',(0.,0.,-93.9855478511189));
#329=CARTESIAN_POINT('',(0.248342994368561,0.,-93.9855478511189));
#330=CARTESIAN_POINT('',(-0.247962054258183,-0.0137499999999916,-93.9855478511189));
#331=CARTESIAN_POINT('',(-0.204968961460694,-0.0137499999999913,-93.9882208340046));
#332=CARTESIAN_POINT('',(-0.162613961317704,-0.00900086680214433,-93.990155601867));
#333=CARTESIAN_POINT('',(-0.0793808035298277,0.0113783607832458,-93.9926770268481));
#334=CARTESIAN_POINT('',(-0.0390926268931124,0.0269725405722571,-93.9932273444236));
#335=CARTESIAN_POINT('',(-0.00223802173566056,0.0487499999982953,-93.9932479854197));
#336=CARTESIAN_POINT('',(0.,0.,0.));
#337=CARTESIAN_POINT('',(0.,0.,-88.0781032233905));
#338=CARTESIAN_POINT('',(3.50500870745648,0.,-88.0781032233905));
#339=CARTESIAN_POINT('',(-3.50498173702029,-0.0137500000000189,-88.0781032233905));
#340=CARTESIAN_POINT('',(-5.06823979793927,-0.0137500000000189,-90.933119308099));
#341=CARTESIAN_POINT('',(-3.49666898977521,-0.0137500000000189,-93.7835680103034));
#342=CARTESIAN_POINT('',(-0.247962054258192,-0.0137500000000189,-93.9855478511189));
#343=CARTESIAN_POINT('',(0.,0.,0.));
#344=CARTESIAN_POINT('',(0.,0.,-87.8856261926926));
#345=CARTESIAN_POINT('',(3.39285179755786,0.,-87.8856261926926));
#346=CARTESIAN_POINT('',(-3.39250154866457,0.0487499999998802,-87.8856261926925));
#347=CARTESIAN_POINT('',(-3.40987135908877,0.0274996195889775,-87.9135322748696));
#348=CARTESIAN_POINT('',(-3.42877594880771,0.0117859609488003,-87.944706220423));
#349=CARTESIAN_POINT('',(-3.46685816181174,-0.00877417554591054,-88.0097050873846));
#350=CARTESIAN_POINT('',(-3.48622794964741,-0.0137499999999905,-88.0438527269835));
#351=CARTESIAN_POINT('',(-3.50498173702029,-0.0137499999999906,-88.0781032233905));
#352=CARTESIAN_POINT('',(0.,0.,0.));
#353=CARTESIAN_POINT('',(-2.64537161850656,0.0487500000000073,-87.0022486121389));
#354=CARTESIAN_POINT('',(-2.93646310710087,0.0487500000000073,-87.2593588499741));
#355=CARTESIAN_POINT('',(-3.18726772114347,0.0487500000000073,-87.5559005413206));
#356=CARTESIAN_POINT('',(-3.39250154866459,0.0487500000000073,-87.8856261926926));
#357=CARTESIAN_POINT('',(0.,0.,0.));
#358=CARTESIAN_POINT('',(0.,0.,-78.4774101615137));
#359=CARTESIAN_POINT('',(0.,-3.475,-78.4774101615137));
#360=CARTESIAN_POINT('',(0.,0.,-78.4774101615137));
#361=CARTESIAN_POINT('',(0.,0.,-92.4972486121389));
#362=CARTESIAN_POINT('',(0.,2.53799256303087,-92.4972486121389));
#363=CARTESIAN_POINT('',(0.,0.,-90.7819659179249));
#364=CARTESIAN_POINT('',(0.,-3.475,-90.7819659179249));
#365=CARTESIAN_POINT('',(4.44089209850063E-16,0.,-89.9972486121389));
#366=CARTESIAN_POINT('',(0.,0.,-92.4972486121389));
#367=CARTESIAN_POINT('',(0.,0.,-75.13));
#368=CARTESIAN_POINT('',(0.,0.,-74.0820490706551));
#369=CARTESIAN_POINT('',(0.,-3.85926196077829,-74.0820490706551));
#370=CARTESIAN_POINT('',(0.,0.,-73.9237983827692));
#371=CARTESIAN_POINT('',(0.,3.99875,-73.9237983827692));
#372=CARTESIAN_POINT('',(0.,0.,-74.6604705876881));
#373=CARTESIAN_POINT('',(0.,0.,34.1104182389825));
#374=CARTESIAN_POINT('',(0.,3.99875,34.1104182389825));
#375=CARTESIAN_POINT('',(0.,0.,-75.13));
#376=CARTESIAN_POINT('',(0.,0.,36.));
#377=CARTESIAN_POINT('',(0.,2.90779946162075,36.));
#378=CARTESIAN_POINT('',(0.,0.,36.));
#379=CARTESIAN_POINT('',(0.,0.,36.));
#380=CARTESIAN_POINT('',(0.,0.,-74.87));
#381=CARTESIAN_POINT('',(0.,-3.475,-74.87));
#382=CARTESIAN_POINT('',(0.,0.,-74.87));
#383=CARTESIAN_POINT('',(0.,0.,-78.4764101615137));
#384=CARTESIAN_POINT('',(0.,-3.475,-78.4764101615137));
#385=CARTESIAN_POINT('',(0.,0.,-75.13));
#386=CARTESIAN_POINT('',(1.59011808060308E-18,0.,-84.4952867178156));
#387=CARTESIAN_POINT('',(0.,0.,-78.13));
#388=MECHANICAL_DESIGN_GEOMETRIC_PRESENTATION_REPRESENTATION('',(#42,#43,
#44),#389);
#389=(
GEOMETRIC_REPRESENTATION_CONTEXT(3)
GLOBAL_UNCERTAINTY_ASSIGNED_CONTEXT((#390))
GLOBAL_UNIT_ASSIGNED_CONTEXT((#396,#392,#391))
REPRESENTATION_CONTEXT('PPH0802QC08130HSCW_112226091ndi000_00_SIM',
'TOP_LEVEL_ASSEMBLY_PART')
);
#390=UNCERTAINTY_MEASURE_WITH_UNIT(LENGTH_MEASURE(2.E-5),#396,
'DISTANCE_ACCURACY_VALUE','Maximum Tolerance applied to model');
#391=(
NAMED_UNIT(*)
SI_UNIT($,.STERADIAN.)
SOLID_ANGLE_UNIT()
);
#392=(
CONVERSION_BASED_UNIT('DEGREE',#394)
NAMED_UNIT(#393)
PLANE_ANGLE_UNIT()
);
#393=DIMENSIONAL_EXPONENTS(0.,0.,0.,0.,0.,0.,0.);
#394=PLANE_ANGLE_MEASURE_WITH_UNIT(PLANE_ANGLE_MEASURE(0.0174532925),#395);
#395=(
NAMED_UNIT(*)
PLANE_ANGLE_UNIT()
SI_UNIT($,.RADIAN.)
);
#396=(
LENGTH_UNIT()
NAMED_UNIT(*)
SI_UNIT(.MILLI.,.METRE.)
);
ENDSEC;
END-ISO-10303-21;
