ISO-10303-21;
HEADER;
/* Generated by software containing ST-Developer
 * from STEP Tools, Inc. (www.steptools.com) 
 */
/* OPTION: using custom schema-name function */

FILE_DESCRIPTION(
/* description */ (''),
/* implementation_level */ '2;1');

FILE_NAME(
/* name */ 'h85512.0-r95012.0_3d_light.stp',
/* time_stamp */ '2021-09-03T16:15:03+02:00',
/* author */ (''),
/* organization */ ('SMS'),
/* preprocessor_version */ 'ST-DEVELOPER v16.7',
/* originating_system */ 'SIEMENS PLM Software NX 12.0',
/* authorisation */ '');

FILE_SCHEMA (('AUTOMOTIVE_DESIGN { 1 0 10303 214 3 1 1 1 }'));
ENDSEC;

DATA;
#10=CONSTRUCTIVE_GEOMETRY_REPRESENTATION_RELATIONSHIP(
'supplemental geometry','',#26,#11);
#11=CONSTRUCTIVE_GEOMETRY_REPRESENTATION('supplemental geometry',(#249,
#250,#251),#457);
#12=GEOMETRICALLY_BOUNDED_WIREFRAME_SHAPE_REPRESENTATION(
'H85512.0-R95012.0_3D_light-None',(#27),#457);
#13=SHAPE_REPRESENTATION_RELATIONSHIP('None',
'relationship between H85512.0-R95012.0_3D_light-None and H85512.0-R95
012.0_3D_light-None',#26,#15);
#14=SHAPE_REPRESENTATION_RELATIONSHIP('None',
'relationship between H85512.0-R95012.0_3D_light-None and H85512.0-R95
012.0_3D_light-None',#26,#12);
#15=ADVANCED_BREP_SHAPE_REPRESENTATION(
'H85512.0-R95012.0_3D_light-None',(#39,#40),#457);
#16=SHAPE_DEFINITION_REPRESENTATION(#17,#26);
#17=PRODUCT_DEFINITION_SHAPE('','',#18);
#18=PRODUCT_DEFINITION(' ','',#20,#19);
#19=PRODUCT_DEFINITION_CONTEXT('part definition',#25,'design');
#20=PRODUCT_DEFINITION_FORMATION_WITH_SPECIFIED_SOURCE(' ',' ',#22,
 .NOT_KNOWN.);
#21=PRODUCT_RELATED_PRODUCT_CATEGORY('part','',(#22));
#22=PRODUCT('H85512.0-R95012.0_3D_light','H85512.0-R95012.0_3D_light',
' ',(#23));
#23=PRODUCT_CONTEXT(' ',#25,'mechanical');
#24=APPLICATION_PROTOCOL_DEFINITION('international standard',
'automotive_design',2010,#25);
#25=APPLICATION_CONTEXT(
'core data for automotive mechanical design processes');
#26=SHAPE_REPRESENTATION('H85512.0-R95012.0_3D_light-None',(#248),#457);
#27=GEOMETRIC_CURVE_SET('None',(#340,#341,#342,#212));
#28=VERTEX_LOOP('',#177);
#29=SURFACE_STYLE_USAGE(.BOTH.,#31);
#30=SURFACE_STYLE_USAGE(.BOTH.,#32);
#31=SURFACE_SIDE_STYLE('',(#33));
#32=SURFACE_SIDE_STYLE('',(#34));
#33=SURFACE_STYLE_FILL_AREA(#35);
#34=SURFACE_STYLE_FILL_AREA(#36);
#35=FILL_AREA_STYLE('',(#37));
#36=FILL_AREA_STYLE('',(#38));
#37=FILL_AREA_STYLE_COLOUR('',#246);
#38=FILL_AREA_STYLE_COLOUR('',#247);
#39=MANIFOLD_SOLID_BREP('NOCUT',#41);
#40=MANIFOLD_SOLID_BREP('CUT',#42);
#41=CLOSED_SHELL('',(#73,#74,#75,#76,#77,#78,#79,#80,#81,#82,#83));
#42=CLOSED_SHELL('',(#84,#85,#86));
#43=LINE('',#438,#47);
#44=LINE('',#440,#48);
#45=LINE('',#441,#49);
#46=LINE('',#443,#50);
#47=VECTOR('',#313,1.);
#48=VECTOR('',#316,1.);
#49=VECTOR('',#317,1.);
#50=VECTOR('',#320,1.);
#51=ELLIPSE('',#261,10.9386196887888,8.);
#52=ELLIPSE('',#262,229.229666782751,8.);
#53=ELLIPSE('',#263,11.730233485117,8.);
#54=ELLIPSE('',#264,229.229666782751,8.);
#55=PLANE('',#258);
#56=PLANE('',#266);
#57=PLANE('',#267);
#58=PLANE('',#268);
#59=PLANE('',#271);
#60=PLANE('',#275);
#61=FACE_OUTER_BOUND('',#108,.T.);
#62=FACE_OUTER_BOUND('',#114,.T.);
#63=FACE_OUTER_BOUND('',#115,.T.);
#64=FACE_OUTER_BOUND('',#116,.T.);
#65=FACE_OUTER_BOUND('',#117,.T.);
#66=FACE_OUTER_BOUND('',#118,.T.);
#67=FACE_OUTER_BOUND('',#119,.T.);
#68=FACE_OUTER_BOUND('',#122,.T.);
#69=CONICAL_SURFACE('',#256,5.85,12.1338801706333);
#70=CONICAL_SURFACE('',#260,8.,45.);
#71=CONICAL_SURFACE('',#274,6.00179999996074,0.0103132402025222);
#72=CONICAL_SURFACE('',#276,1.56142466891288E-14,70.0000000000002);
#73=ADVANCED_FACE('',(#91,#92),#87,.T.);
#74=ADVANCED_FACE('',(#93,#94),#69,.T.);
#75=ADVANCED_FACE('',(#61),#55,.T.);
#76=ADVANCED_FACE('',(#95,#96),#70,.T.);
#77=ADVANCED_FACE('CYL_FACE',(#97,#98,#99),#88,.T.);
#78=ADVANCED_FACE('',(#62),#56,.T.);
#79=ADVANCED_FACE('',(#63),#57,.T.);
#80=ADVANCED_FACE('',(#64),#58,.T.);
#81=ADVANCED_FACE('',(#65),#89,.F.);
#82=ADVANCED_FACE('',(#66),#90,.F.);
#83=ADVANCED_FACE('',(#67),#59,.T.);
#84=ADVANCED_FACE('',(#100,#101),#71,.T.);
#85=ADVANCED_FACE('',(#68),#60,.F.);
#86=ADVANCED_FACE('',(#102,#103),#72,.T.);
#87=CYLINDRICAL_SURFACE('',#254,5.85000000000001);
#88=CYLINDRICAL_SURFACE('',#265,8.);
#89=CYLINDRICAL_SURFACE('',#269,1.6);
#90=CYLINDRICAL_SURFACE('',#270,1.6);
#91=FACE_BOUND('',#104,.T.);
#92=FACE_BOUND('',#105,.T.);
#93=FACE_BOUND('',#106,.T.);
#94=FACE_BOUND('',#107,.T.);
#95=FACE_BOUND('',#109,.T.);
#96=FACE_BOUND('',#110,.T.);
#97=FACE_BOUND('',#111,.T.);
#98=FACE_BOUND('',#112,.T.);
#99=FACE_BOUND('',#113,.T.);
#100=FACE_BOUND('',#120,.T.);
#101=FACE_BOUND('',#121,.T.);
#102=FACE_BOUND('',#28,.T.);
#103=FACE_BOUND('',#123,.T.);
#104=EDGE_LOOP('',(#124));
#105=EDGE_LOOP('',(#125));
#106=EDGE_LOOP('',(#126));
#107=EDGE_LOOP('',(#127));
#108=EDGE_LOOP('',(#128));
#109=EDGE_LOOP('',(#129));
#110=EDGE_LOOP('',(#130));
#111=EDGE_LOOP('',(#131,#132,#133,#134,#135,#136,#137,#138));
#112=EDGE_LOOP('',(#139));
#113=EDGE_LOOP('',(#140));
#114=EDGE_LOOP('',(#141,#142));
#115=EDGE_LOOP('',(#143,#144,#145,#146));
#116=EDGE_LOOP('',(#147,#148));
#117=EDGE_LOOP('',(#149,#150,#151,#152));
#118=EDGE_LOOP('',(#153,#154,#155,#156));
#119=EDGE_LOOP('',(#157));
#120=EDGE_LOOP('',(#158));
#121=EDGE_LOOP('',(#159));
#122=EDGE_LOOP('',(#160));
#123=EDGE_LOOP('',(#161));
#124=ORIENTED_EDGE('',*,*,#178,.F.);
#125=ORIENTED_EDGE('',*,*,#179,.F.);
#126=ORIENTED_EDGE('',*,*,#180,.T.);
#127=ORIENTED_EDGE('',*,*,#179,.T.);
#128=ORIENTED_EDGE('',*,*,#181,.F.);
#129=ORIENTED_EDGE('',*,*,#181,.T.);
#130=ORIENTED_EDGE('',*,*,#182,.F.);
#131=ORIENTED_EDGE('',*,*,#183,.F.);
#132=ORIENTED_EDGE('',*,*,#184,.T.);
#133=ORIENTED_EDGE('',*,*,#185,.F.);
#134=ORIENTED_EDGE('',*,*,#186,.T.);
#135=ORIENTED_EDGE('',*,*,#187,.F.);
#136=ORIENTED_EDGE('',*,*,#188,.T.);
#137=ORIENTED_EDGE('',*,*,#189,.F.);
#138=ORIENTED_EDGE('',*,*,#190,.T.);
#139=ORIENTED_EDGE('',*,*,#182,.T.);
#140=ORIENTED_EDGE('',*,*,#180,.F.);
#141=ORIENTED_EDGE('',*,*,#191,.T.);
#142=ORIENTED_EDGE('',*,*,#184,.F.);
#143=ORIENTED_EDGE('',*,*,#192,.T.);
#144=ORIENTED_EDGE('',*,*,#186,.F.);
#145=ORIENTED_EDGE('',*,*,#193,.T.);
#146=ORIENTED_EDGE('',*,*,#190,.F.);
#147=ORIENTED_EDGE('',*,*,#194,.T.);
#148=ORIENTED_EDGE('',*,*,#188,.F.);
#149=ORIENTED_EDGE('',*,*,#183,.T.);
#150=ORIENTED_EDGE('',*,*,#193,.F.);
#151=ORIENTED_EDGE('',*,*,#185,.T.);
#152=ORIENTED_EDGE('',*,*,#191,.F.);
#153=ORIENTED_EDGE('',*,*,#189,.T.);
#154=ORIENTED_EDGE('',*,*,#194,.F.);
#155=ORIENTED_EDGE('',*,*,#187,.T.);
#156=ORIENTED_EDGE('',*,*,#192,.F.);
#157=ORIENTED_EDGE('',*,*,#178,.T.);
#158=ORIENTED_EDGE('',*,*,#195,.T.);
#159=ORIENTED_EDGE('',*,*,#196,.T.);
#160=ORIENTED_EDGE('',*,*,#196,.F.);
#161=ORIENTED_EDGE('',*,*,#195,.F.);
#162=VERTEX_POINT('',#360);
#163=VERTEX_POINT('',#362);
#164=VERTEX_POINT('',#365);
#165=VERTEX_POINT('',#368);
#166=VERTEX_POINT('',#371);
#167=VERTEX_POINT('',#386);
#168=VERTEX_POINT('',#387);
#169=VERTEX_POINT('',#389);
#170=VERTEX_POINT('',#403);
#171=VERTEX_POINT('',#405);
#172=VERTEX_POINT('',#419);
#173=VERTEX_POINT('',#421);
#174=VERTEX_POINT('',#435);
#175=VERTEX_POINT('',#449);
#176=VERTEX_POINT('',#451);
#177=VERTEX_POINT('',#454);
#178=EDGE_CURVE('',#162,#162,#197,.T.);
#179=EDGE_CURVE('',#163,#163,#198,.T.);
#180=EDGE_CURVE('',#164,#164,#199,.T.);
#181=EDGE_CURVE('',#165,#165,#200,.T.);
#182=EDGE_CURVE('',#166,#166,#201,.T.);
#183=EDGE_CURVE('',#167,#168,#213,.T.);
#184=EDGE_CURVE('',#167,#169,#51,.T.);
#185=EDGE_CURVE('',#170,#169,#214,.T.);
#186=EDGE_CURVE('',#170,#171,#52,.T.);
#187=EDGE_CURVE('',#172,#171,#215,.T.);
#188=EDGE_CURVE('',#172,#173,#53,.T.);
#189=EDGE_CURVE('',#174,#173,#216,.T.);
#190=EDGE_CURVE('',#174,#168,#54,.T.);
#191=EDGE_CURVE('',#167,#169,#43,.T.);
#192=EDGE_CURVE('',#174,#171,#44,.T.);
#193=EDGE_CURVE('',#170,#168,#45,.T.);
#194=EDGE_CURVE('',#172,#173,#46,.T.);
#195=EDGE_CURVE('',#175,#175,#202,.T.);
#196=EDGE_CURVE('',#176,#176,#203,.T.);
#197=CIRCLE('',#252,5.85000000000001);
#198=CIRCLE('',#253,5.85000000000001);
#199=CIRCLE('',#255,8.);
#200=CIRCLE('',#257,7.);
#201=CIRCLE('',#259,8.);
#202=CIRCLE('',#272,5.99999999996048);
#203=CIRCLE('',#273,5.99875508781329);
#204=CURVE_STYLE('',#208,POSITIVE_LENGTH_MEASURE(0.18),#218);
#205=CURVE_STYLE('',#209,POSITIVE_LENGTH_MEASURE(0.13),#245);
#206=CURVE_STYLE('',#210,POSITIVE_LENGTH_MEASURE(0.18),#244);
#207=CURVE_STYLE('',#211,POSITIVE_LENGTH_MEASURE(0.18),#244);
#208=DRAUGHTING_PRE_DEFINED_CURVE_FONT('continuous');
#209=DRAUGHTING_PRE_DEFINED_CURVE_FONT('continuous');
#210=DRAUGHTING_PRE_DEFINED_CURVE_FONT('continuous');
#211=DRAUGHTING_PRE_DEFINED_CURVE_FONT('continuous');
#212=B_SPLINE_CURVE_WITH_KNOTS('CUTTING PART LINE',3,(#343,#344,#345,#346,
#347,#348,#349,#350,#351,#352,#353,#354,#355),.UNSPECIFIED.,.T.,.F.,(4,
3,3,3,4),(0.,0.320422530368689,0.531646297875947,0.775173713437605,1.),
 .UNSPECIFIED.);
#213=B_SPLINE_CURVE_WITH_KNOTS('',3,(#373,#374,#375,#376,#377,#378,#379,
#380,#381,#382,#383,#384,#385),.UNSPECIFIED.,.F.,.F.,(4,3,3,3,4),(0.,0.503918764243601,
0.724984372231463,0.949115811227278,1.),.UNSPECIFIED.);
#214=B_SPLINE_CURVE_WITH_KNOTS('',3,(#390,#391,#392,#393,#394,#395,#396,
#397,#398,#399,#400,#401,#402),.UNSPECIFIED.,.F.,.F.,(4,3,3,3,4),(0.,0.189784296307931,
0.37798063526448,0.688351772341069,1.),.UNSPECIFIED.);
#215=B_SPLINE_CURVE_WITH_KNOTS('',3,(#406,#407,#408,#409,#410,#411,#412,
#413,#414,#415,#416,#417,#418),.UNSPECIFIED.,.F.,.F.,(4,3,3,3,4),(0.,0.370491768076569,
0.676127028930204,0.945274999137051,1.),.UNSPECIFIED.);
#216=B_SPLINE_CURVE_WITH_KNOTS('',3,(#422,#423,#424,#425,#426,#427,#428,
#429,#430,#431,#432,#433,#434),.UNSPECIFIED.,.F.,.F.,(4,3,3,3,4),(0.,0.287943312691012,
0.57420506210481,0.952882445148986,1.),.UNSPECIFIED.);
#217=DRAUGHTING_PRE_DEFINED_COLOUR('white');
#218=DRAUGHTING_PRE_DEFINED_COLOUR('blue');
#219=PRESENTATION_LAYER_ASSIGNMENT('1','Layer 1',(#340,#341,#342,#212,#249,
#250,#251,#39,#40));
#220=STYLED_ITEM('',(#229),#340);
#221=STYLED_ITEM('',(#230),#341);
#222=STYLED_ITEM('',(#231),#342);
#223=STYLED_ITEM('',(#232),#212);
#224=STYLED_ITEM('',(#233),#249);
#225=STYLED_ITEM('',(#234),#250);
#226=STYLED_ITEM('',(#235),#251);
#227=STYLED_ITEM('',(#236),#39);
#228=STYLED_ITEM('',(#237),#40);
#229=PRESENTATION_STYLE_ASSIGNMENT((#238));
#230=PRESENTATION_STYLE_ASSIGNMENT((#239));
#231=PRESENTATION_STYLE_ASSIGNMENT((#240));
#232=PRESENTATION_STYLE_ASSIGNMENT((#204));
#233=PRESENTATION_STYLE_ASSIGNMENT((#205));
#234=PRESENTATION_STYLE_ASSIGNMENT((#206));
#235=PRESENTATION_STYLE_ASSIGNMENT((#207));
#236=PRESENTATION_STYLE_ASSIGNMENT((#29));
#237=PRESENTATION_STYLE_ASSIGNMENT((#30));
#238=POINT_STYLE('',#241,POSITIVE_LENGTH_MEASURE(3.),#244);
#239=POINT_STYLE('',#242,POSITIVE_LENGTH_MEASURE(3.),#217);
#240=POINT_STYLE('',#243,POSITIVE_LENGTH_MEASURE(3.),#244);
#241=PRE_DEFINED_POINT_MARKER_SYMBOL('plus');
#242=PRE_DEFINED_POINT_MARKER_SYMBOL('plus');
#243=PRE_DEFINED_POINT_MARKER_SYMBOL('plus');
#244=COLOUR_RGB('Medium Maroon',0.6,0.4,0.4);
#245=COLOUR_RGB('Silver Gray',0.6,0.6,0.6);
#246=COLOUR_RGB('TLS_NOCUT',0.498023956664378,0.498023956664378,0.498023956664378);
#247=COLOUR_RGB('TLS_CUT',0.8,0.8,0.8);
#248=AXIS2_PLACEMENT_3D('',#339,#277,#278);
#249=AXIS2_PLACEMENT_3D('PCS',#356,#279,#280);
#250=AXIS2_PLACEMENT_3D('MCS',#357,#281,#282);
#251=AXIS2_PLACEMENT_3D('CIP',#358,#283,#284);
#252=AXIS2_PLACEMENT_3D('',#359,#285,#286);
#253=AXIS2_PLACEMENT_3D('',#361,#287,#288);
#254=AXIS2_PLACEMENT_3D('',#363,#289,#290);
#255=AXIS2_PLACEMENT_3D('',#364,#291,#292);
#256=AXIS2_PLACEMENT_3D('',#366,#293,#294);
#257=AXIS2_PLACEMENT_3D('',#367,#295,#296);
#258=AXIS2_PLACEMENT_3D('',#369,#297,#298);
#259=AXIS2_PLACEMENT_3D('',#370,#299,#300);
#260=AXIS2_PLACEMENT_3D('',#372,#301,#302);
#261=AXIS2_PLACEMENT_3D('',#388,#303,#304);
#262=AXIS2_PLACEMENT_3D('',#404,#305,#306);
#263=AXIS2_PLACEMENT_3D('',#420,#307,#308);
#264=AXIS2_PLACEMENT_3D('',#436,#309,#310);
#265=AXIS2_PLACEMENT_3D('',#437,#311,#312);
#266=AXIS2_PLACEMENT_3D('',#439,#314,#315);
#267=AXIS2_PLACEMENT_3D('',#442,#318,#319);
#268=AXIS2_PLACEMENT_3D('',#444,#321,#322);
#269=AXIS2_PLACEMENT_3D('',#445,#323,#324);
#270=AXIS2_PLACEMENT_3D('',#446,#325,#326);
#271=AXIS2_PLACEMENT_3D('',#447,#327,#328);
#272=AXIS2_PLACEMENT_3D('',#448,#329,#330);
#273=AXIS2_PLACEMENT_3D('',#450,#331,#332);
#274=AXIS2_PLACEMENT_3D('',#452,#333,#334);
#275=AXIS2_PLACEMENT_3D('',#453,#335,#336);
#276=AXIS2_PLACEMENT_3D('',#455,#337,#338);
#277=DIRECTION('',(0.,0.,1.));
#278=DIRECTION('',(1.,0.,0.));
#279=DIRECTION('',(0.,0.,1.));
#280=DIRECTION('',(1.,0.,0.));
#281=DIRECTION('',(0.,0.,1.));
#282=DIRECTION('',(1.,0.,0.));
#283=DIRECTION('',(0.,0.,1.));
#284=DIRECTION('',(1.,0.,0.));
#285=DIRECTION('',(0.,0.,-1.));
#286=DIRECTION('',(1.,0.,0.));
#287=DIRECTION('',(0.,0.,1.));
#288=DIRECTION('',(-1.,0.,0.));
#289=DIRECTION('',(0.,0.,1.));
#290=DIRECTION('',(1.,0.,0.));
#291=DIRECTION('',(0.,0.,-1.));
#292=DIRECTION('',(-1.,0.,0.));
#293=DIRECTION('',(0.,0.,1.));
#294=DIRECTION('',(1.,0.,-2.19933245765681E-16));
#295=DIRECTION('',(0.,0.,-1.));
#296=DIRECTION('',(-1.,0.,0.));
#297=DIRECTION('',(0.,0.,1.));
#298=DIRECTION('',(1.,0.,0.));
#299=DIRECTION('',(0.,0.,-1.));
#300=DIRECTION('',(-1.,0.,0.));
#301=DIRECTION('',(0.,0.,-1.));
#302=DIRECTION('',(-1.,0.,1.10141173077893E-16));
#303=DIRECTION('',(0.,0.681998360062498,0.73135370161917));
#304=DIRECTION('',(0.,0.73135370161917,-0.681998360062498));
#305=DIRECTION('',(0.,0.999390827019096,0.0348994967025008));
#306=DIRECTION('',(0.,0.0348994967025008,-0.999390827019096));
#307=DIRECTION('',(0.,0.731353701619171,-0.681998360062498));
#308=DIRECTION('',(0.,-0.681998360062498,-0.731353701619171));
#309=DIRECTION('',(0.,0.999390827019096,0.0348994967025008));
#310=DIRECTION('',(0.,0.0348994967025008,-0.999390827019096));
#311=DIRECTION('',(0.,0.,-1.));
#312=DIRECTION('',(-1.,0.,0.));
#313=DIRECTION('',(1.,0.,0.));
#314=DIRECTION('',(0.,-0.681998360062498,-0.73135370161917));
#315=DIRECTION('',(0.,-0.731353701619171,0.681998360062499));
#316=DIRECTION('',(1.,0.,0.));
#317=DIRECTION('',(-1.,0.,0.));
#318=DIRECTION('',(0.,-0.999390827019096,-0.0348994967025008));
#319=DIRECTION('',(0.,-0.0348994967025008,0.999390827019096));
#320=DIRECTION('',(-1.,0.,0.));
#321=DIRECTION('',(0.,-0.731353701619171,0.681998360062498));
#322=DIRECTION('',(0.,0.681998360062498,0.731353701619171));
#323=DIRECTION('',(1.,0.,0.));
#324=DIRECTION('',(0.,0.,-1.));
#325=DIRECTION('',(1.,0.,0.));
#326=DIRECTION('',(0.,0.,-0.999999999999998));
#327=DIRECTION('',(0.,0.,-1.));
#328=DIRECTION('',(-1.,0.,0.));
#329=DIRECTION('',(0.,0.,1.));
#330=DIRECTION('',(1.,0.,0.));
#331=DIRECTION('',(0.,0.,-1.));
#332=DIRECTION('',(1.,0.,0.));
#333=DIRECTION('',(0.,0.,-1.));
#334=DIRECTION('',(-1.,0.,8.97977146322549E-15));
#335=DIRECTION('',(0.,0.,-1.));
#336=DIRECTION('',(-1.,0.,0.));
#337=DIRECTION('',(0.,0.,1.));
#338=DIRECTION('',(1.,0.,0.));
#339=CARTESIAN_POINT('',(0.,0.,0.));
#340=CARTESIAN_POINT('',(0.,0.,-48.));
#341=CARTESIAN_POINT('CRP',(-6.,0.,-127.816178594403));
#342=CARTESIAN_POINT('CIP_DCSYS',(0.,0.,-130.));
#343=CARTESIAN_POINT('',(0.,0.,-130.));
#344=CARTESIAN_POINT('',(0.,0.,-126.966666666667));
#345=CARTESIAN_POINT('',(0.,0.,-123.933333333333));
#346=CARTESIAN_POINT('',(0.,0.,-120.9));
#347=CARTESIAN_POINT('',(-1.9995850292711,0.,-120.9));
#348=CARTESIAN_POINT('',(-3.9991700585422,0.,-120.9));
#349=CARTESIAN_POINT('',(-5.99875508781329,0.,-120.900000000003));
#350=CARTESIAN_POINT('',(-5.99917005852902,0.,-123.205392864809));
#351=CARTESIAN_POINT('',(-5.99958502924475,0.,-125.510785729613));
#352=CARTESIAN_POINT('',(-5.99999999996047,0.,-127.816178594417));
#353=CARTESIAN_POINT('',(-3.99999999997365,0.,-128.544119062945));
#354=CARTESIAN_POINT('',(-1.99999999998682,0.,-129.272059531472));
#355=CARTESIAN_POINT('',(0.,0.,-130.));
#356=CARTESIAN_POINT('',(0.,0.,0.));
#357=CARTESIAN_POINT('',(0.,0.,-48.));
#358=CARTESIAN_POINT('',(0.,0.,-130.));
#359=CARTESIAN_POINT('',(0.,0.,-120.9));
#360=CARTESIAN_POINT('',(5.85000000000001,0.,-120.9));
#361=CARTESIAN_POINT('',(0.,0.,-58.));
#362=CARTESIAN_POINT('',(-5.85000000000001,0.,-58.));
#363=CARTESIAN_POINT('',(0.,0.,20.9080749503476));
#364=CARTESIAN_POINT('',(0.,0.,-48.));
#365=CARTESIAN_POINT('',(-8.,0.,-48.));
#366=CARTESIAN_POINT('',(0.,0.,-58.));
#367=CARTESIAN_POINT('',(0.,0.,0.));
#368=CARTESIAN_POINT('',(-7.,0.,0.));
#369=CARTESIAN_POINT('',(-7.,0.,3.33066907387547E-16));
#370=CARTESIAN_POINT('',(0.,0.,-1.));
#371=CARTESIAN_POINT('',(-8.,0.,-1.));
#372=CARTESIAN_POINT('',(0.,0.,-1.));
#373=CARTESIAN_POINT('',(-3.33034885603652,-7.27384193511904,-6.67715335042203));
#374=CARTESIAN_POINT('',(-3.55961122589998,-7.16887351842571,-6.77503798255655));
#375=CARTESIAN_POINT('',(-3.77907098441777,-7.05395394067436,-6.90697473677488));
#376=CARTESIAN_POINT('',(-3.95218455482181,-6.95559035917354,-7.09005204700998));
#377=CARTESIAN_POINT('',(-4.02918195725194,-6.91184023460727,-7.17148111868297));
#378=CARTESIAN_POINT('',(-4.09791876168372,-6.87102229871778,-7.2646125229474));
#379=CARTESIAN_POINT('',(-4.15120456541471,-6.83867682056113,-7.36750936574463));
#380=CARTESIAN_POINT('',(-4.20491857164171,-6.80607141549127,-7.47123308327831));
#381=CARTESIAN_POINT('',(-4.24386042150212,-6.7815953230833,-7.58821457922505));
#382=CARTESIAN_POINT('',(-4.26049804686624,-6.77112667084651,-7.70788292602704));
#383=CARTESIAN_POINT('',(-4.26434609385164,-6.76870541992883,-7.73556051889749));
#384=CARTESIAN_POINT('',(-4.26706352395035,-6.76699137267959,-7.76349144271916));
#385=CARTESIAN_POINT('',(-4.2686127388584,-6.76601398798848,-7.7914800782887));
#386=CARTESIAN_POINT('',(-3.33034885603652,-7.27384193511904,-6.67715335042203));
#387=CARTESIAN_POINT('',(-4.2686127388584,-6.76601398798848,-7.7914800782887));
#388=CARTESIAN_POINT('',(0.,0.,-13.4601206891013));
#389=CARTESIAN_POINT('',(3.33034885603652,-7.27384193511904,-6.67715335042203));
#390=CARTESIAN_POINT('',(4.2686127388584,-6.76601398798848,-7.7914800782887));
#391=CARTESIAN_POINT('',(4.26294527952317,-6.76958953322949,-7.68908985914271));
#392=CARTESIAN_POINT('',(4.24103571957246,-6.78345598923,-7.58669998117661));
#393=CARTESIAN_POINT('',(4.20638832537254,-6.80487305217148,-7.49252180384254));
#394=CARTESIAN_POINT('',(4.17190918486472,-6.82618611017991,-7.39880097189958));
#395=CARTESIAN_POINT('',(4.12433604014201,-6.85521993134839,-7.31087984359227));
#396=CARTESIAN_POINT('',(4.06861503295429,-6.88813267247506,-7.2318952074823));
#397=CARTESIAN_POINT('',(3.97725604196156,-6.94209571032912,-7.1023936599847));
#398=CARTESIAN_POINT('',(3.86199268185757,-7.00748991037386,-6.99319408913274));
#399=CARTESIAN_POINT('',(3.73725728182676,-7.07339437677788,-6.90304528558506));
#400=CARTESIAN_POINT('',(3.61140965871472,-7.13988649086389,-6.81209265585792));
#401=CARTESIAN_POINT('',(3.47351918287925,-7.20829100089857,-6.73828058549304));
#402=CARTESIAN_POINT('',(3.33034885603652,-7.27384193511904,-6.67715335042203));
#403=CARTESIAN_POINT('',(4.2686127388584,-6.76601398798848,-7.7914800782887));
#404=CARTESIAN_POINT('',(0.,0.,-201.544770354077));
#405=CARTESIAN_POINT('',(5.42000303685278,-5.88417938887885,-33.0439190120305));
#406=CARTESIAN_POINT('',(4.91381127456396,-6.31303878951873,-34.1909555828545));
#407=CARTESIAN_POINT('',(5.02622494621434,-6.2255405837279,-34.0971252447811));
#408=CARTESIAN_POINT('',(5.12829970665137,-6.14102519828816,-33.9834682542438));
#409=CARTESIAN_POINT('',(5.2101996857638,-6.07073465360387,-33.8513753525311));
#410=CARTESIAN_POINT('',(5.27778055777527,-6.01273346293927,-33.7423771136914));
#411=CARTESIAN_POINT('',(5.33292893736261,-5.96341042144295,-33.6181413727695));
#412=CARTESIAN_POINT('',(5.36920752196136,-5.93056578971295,-33.4861678037621));
#413=CARTESIAN_POINT('',(5.40118260886147,-5.90161730769842,-33.3698494196741));
#414=CARTESIAN_POINT('',(5.41915596855747,-5.88496000811553,-33.244675997081));
#415=CARTESIAN_POINT('',(5.42091308907267,-5.88334099646796,-33.1206410076673));
#416=CARTESIAN_POINT('',(5.42127535866886,-5.88300720109608,-33.0950684273346));
#417=CARTESIAN_POINT('',(5.42097142430435,-5.88328739314223,-33.0694624278717));
#418=CARTESIAN_POINT('',(5.42000303685278,-5.88417938887885,-33.0439190120305));
#419=CARTESIAN_POINT('',(4.91381127456396,-6.31303878951873,-34.1909555828545));
#420=CARTESIAN_POINT('',(0.,0.,-27.4210503198025));
#421=CARTESIAN_POINT('',(-4.91381127456396,-6.31303878951873,-34.1909555828545));
#422=CARTESIAN_POINT('',(-5.42000303685278,-5.88417938887885,-33.0439190120305));
#423=CARTESIAN_POINT('',(-5.42502048484393,-5.879557744712,-33.176265584976));
#424=CARTESIAN_POINT('',(-5.41155916970743,-5.89208564984709,-33.3118929413517));
#425=CARTESIAN_POINT('',(-5.38154027844819,-5.9193770137946,-33.438052353886));
#426=CARTESIAN_POINT('',(-5.35161849277741,-5.94658009520251,-33.5638036639395));
#427=CARTESIAN_POINT('',(-5.30468267034454,-5.98885667228236,-33.6836391755654));
#428=CARTESIAN_POINT('',(-5.24589778281787,-6.03991361297714,-33.7903454953471));
#429=CARTESIAN_POINT('',(-5.16835634455993,-6.10726134095786,-33.9310987034454));
#430=CARTESIAN_POINT('',(-5.06824111030211,-6.19137822069665,-34.0532143044883));
#431=CARTESIAN_POINT('',(-4.9565914686559,-6.27950643067172,-34.1538504452536));
#432=CARTESIAN_POINT('',(-4.94253429121556,-6.29060215715014,-34.1665209748387));
#433=CARTESIAN_POINT('',(-4.92826854849135,-6.30178583860358,-34.1788882703977));
#434=CARTESIAN_POINT('',(-4.91381127456396,-6.31303878951873,-34.1909555828545));
#435=CARTESIAN_POINT('',(-5.42000303685278,-5.88417938887885,-33.0439190120305));
#436=CARTESIAN_POINT('',(0.,0.,-201.544770354077));
#437=CARTESIAN_POINT('',(0.,0.,20.9080749503476));
#438=CARTESIAN_POINT('',(-20.,-7.27384193511904,-6.67715335042203));
#439=CARTESIAN_POINT('',(-20.,-9.,-5.06748491386234));
#440=CARTESIAN_POINT('',(-20.,-5.88417938887885,-33.0439190120305));
#441=CARTESIAN_POINT('',(-20.,-6.76601398798848,-7.7914800782887));
#442=CARTESIAN_POINT('',(-20.,-6.78914333975515,-7.12914210282859));
#443=CARTESIAN_POINT('',(-20.,-6.31303878951873,-34.1909555828545));
#444=CARTESIAN_POINT('',(-20.,-5.86105003711218,-33.7062569874906));
#445=CARTESIAN_POINT('',(-20.,-8.36503931121903,-7.8473192730127));
#446=CARTESIAN_POINT('',(-20.,-7.4832047121094,-33.0997582067545));
#447=CARTESIAN_POINT('',(0.,0.,-120.9));
#448=CARTESIAN_POINT('',(0.,0.,-127.816178594415));
#449=CARTESIAN_POINT('',(5.99999999996048,0.,-127.816178594415));
#450=CARTESIAN_POINT('',(0.,0.,-120.9));
#451=CARTESIAN_POINT('',(5.99875508781329,0.,-120.9));
#452=CARTESIAN_POINT('',(0.,0.,-137.816178594403));
#453=CARTESIAN_POINT('',(-5.99875508781329,0.,-120.9));
#454=CARTESIAN_POINT('',(-1.56142466891288E-14,0.,-130.));
#455=CARTESIAN_POINT('',(0.,0.,-130.));
#456=MECHANICAL_DESIGN_GEOMETRIC_PRESENTATION_REPRESENTATION('',(#220,#221,
#222,#223,#224,#225,#226,#227,#228),#457);
#457=(
GEOMETRIC_REPRESENTATION_CONTEXT(3)
GLOBAL_UNCERTAINTY_ASSIGNED_CONTEXT((#458))
GLOBAL_UNIT_ASSIGNED_CONTEXT((#464,#460,#459))
REPRESENTATION_CONTEXT('h85512.0-r95012','TOP_LEVEL_ASSEMBLY_PART')
);
#458=UNCERTAINTY_MEASURE_WITH_UNIT(LENGTH_MEASURE(0.0508),#464,
'DISTANCE_ACCURACY_VALUE','Maximum Tolerance applied to model');
#459=(
NAMED_UNIT(*)
SI_UNIT($,.STERADIAN.)
SOLID_ANGLE_UNIT()
);
#460=(
CONVERSION_BASED_UNIT('DEGREE',#462)
NAMED_UNIT(#461)
PLANE_ANGLE_UNIT()
);
#461=DIMENSIONAL_EXPONENTS(0.,0.,0.,0.,0.,0.,0.);
#462=PLANE_ANGLE_MEASURE_WITH_UNIT(PLANE_ANGLE_MEASURE(0.0174532925),#463);
#463=(
NAMED_UNIT(*)
PLANE_ANGLE_UNIT()
SI_UNIT($,.RADIAN.)
);
#464=(
LENGTH_UNIT()
NAMED_UNIT(*)
SI_UNIT(.MILLI.,.METRE.)
);
ENDSEC;
END-ISO-10303-21;
