ISO-10303-21;
HEADER;
/* Generated by software containing ST-Developer
 * from STEP Tools, Inc. (www.steptools.com) 
 */
/* OPTION: using custom schema-name function */

FILE_DESCRIPTION(
/* description */ (''),
/* implementation_level */ '2;1');

FILE_NAME(
/* name */ 'CTCPN2509K11_SIM.stp',
/* time_stamp */ '2024-02-17T10:12:23+01:00',
/* author */ (''),
/* organization */ (''),
/* preprocessor_version */ 'ST-DEVELOPER v18.102',
/* originating_system */ 'SIEMENS PLM Software NX 2027',
/* authorisation */ '');

FILE_SCHEMA (('AUTOMOTIVE_DESIGN { 1 0 10303 214 3 1 1 1 }'));
ENDSEC;

DATA;
#10=SHAPE_REPRESENTATION_RELATIONSHIP('None',
'relationship between model1-None and model1-None',#22,#11);
#11=ADVANCED_BREP_SHAPE_REPRESENTATION('model1-None',(#41,#42),#550);
#12=SHAPE_DEFINITION_REPRESENTATION(#13,#22);
#13=PRODUCT_DEFINITION_SHAPE('','',#14);
#14=PRODUCT_DEFINITION(' ','',#16,#15);
#15=PRODUCT_DEFINITION_CONTEXT('part definition',#21,'design');
#16=PRODUCT_DEFINITION_FORMATION_WITH_SPECIFIED_SOURCE(' ',' ',#18,
 .NOT_KNOWN.);
#17=PRODUCT_RELATED_PRODUCT_CATEGORY('part','',(#18));
#18=PRODUCT('model1','model1',' ',(#19));
#19=PRODUCT_CONTEXT(' ',#21,'mechanical');
#20=APPLICATION_PROTOCOL_DEFINITION('international standard',
'automotive_design',2010,#21);
#21=APPLICATION_CONTEXT(
'core data for automotive mechanical design processes');
#22=SHAPE_REPRESENTATION('model1-None',(#349),#550);
#23=PRESENTATION_LAYER_ASSIGNMENT('1','Layer 1',(#41));
#24=PRESENTATION_LAYER_ASSIGNMENT('159','Layer 159',(#42));
#25=STYLED_ITEM('',(#27),#41);
#26=STYLED_ITEM('',(#28),#42);
#27=PRESENTATION_STYLE_ASSIGNMENT((#29));
#28=PRESENTATION_STYLE_ASSIGNMENT((#30));
#29=SURFACE_STYLE_USAGE(.BOTH.,#31);
#30=SURFACE_STYLE_USAGE(.BOTH.,#32);
#31=SURFACE_SIDE_STYLE('',(#33));
#32=SURFACE_SIDE_STYLE('',(#34));
#33=SURFACE_STYLE_FILL_AREA(#35);
#34=SURFACE_STYLE_FILL_AREA(#36);
#35=FILL_AREA_STYLE('',(#37));
#36=FILL_AREA_STYLE('',(#38));
#37=FILL_AREA_STYLE_COLOUR('',#39);
#38=FILL_AREA_STYLE_COLOUR('',#40);
#39=COLOUR_RGB('light gray',0.8,0.8,0.8);
#40=COLOUR_RGB('medium gray',0.490196078431373,0.490196078431373,0.490196078431373);
#41=MANIFOLD_SOLID_BREP('',#43);
#42=MANIFOLD_SOLID_BREP('',#44);
#43=CLOSED_SHELL('',(#54,#55,#56,#57,#58,#59,#60,#61));
#44=CLOSED_SHELL('',(#62,#63,#64,#65,#66,#67,#68,#69,#70,#71));
#45=CYLINDRICAL_SURFACE('',#361,0.4);
#46=CYLINDRICAL_SURFACE('',#362,0.4);
#47=CYLINDRICAL_SURFACE('',#363,0.4);
#48=ELLIPSE('',#353,0.429163804311948,0.4);
#49=ELLIPSE('',#354,0.429163804311948,0.4);
#50=ELLIPSE('',#355,0.429163804311948,0.4);
#51=ELLIPSE('',#357,0.429163804311948,0.4);
#52=ELLIPSE('',#358,0.429163804311948,0.4);
#53=ELLIPSE('',#359,0.429163804311948,0.4);
#54=ADVANCED_FACE('',(#87),#72,.F.);
#55=ADVANCED_FACE('',(#88),#73,.F.);
#56=ADVANCED_FACE('',(#89),#74,.F.);
#57=ADVANCED_FACE('',(#90),#75,.T.);
#58=ADVANCED_FACE('',(#91),#76,.F.);
#59=ADVANCED_FACE('',(#92),#45,.T.);
#60=ADVANCED_FACE('',(#93),#46,.T.);
#61=ADVANCED_FACE('',(#94),#47,.T.);
#62=ADVANCED_FACE('',(#95),#77,.T.);
#63=ADVANCED_FACE('',(#96),#78,.T.);
#64=ADVANCED_FACE('',(#97),#79,.T.);
#65=ADVANCED_FACE('',(#98),#80,.F.);
#66=ADVANCED_FACE('',(#99),#81,.T.);
#67=ADVANCED_FACE('',(#100),#82,.T.);
#68=ADVANCED_FACE('',(#101),#83,.F.);
#69=ADVANCED_FACE('',(#102),#84,.F.);
#70=ADVANCED_FACE('',(#103),#85,.F.);
#71=ADVANCED_FACE('',(#104),#86,.F.);
#72=PLANE('',#350);
#73=PLANE('',#351);
#74=PLANE('',#352);
#75=PLANE('',#356);
#76=PLANE('',#360);
#77=PLANE('',#364);
#78=PLANE('',#365);
#79=PLANE('',#366);
#80=PLANE('',#367);
#81=PLANE('',#368);
#82=PLANE('',#369);
#83=PLANE('',#370);
#84=PLANE('',#371);
#85=PLANE('',#372);
#86=PLANE('',#373);
#87=FACE_OUTER_BOUND('',#105,.T.);
#88=FACE_OUTER_BOUND('',#106,.T.);
#89=FACE_OUTER_BOUND('',#107,.T.);
#90=FACE_OUTER_BOUND('',#108,.T.);
#91=FACE_OUTER_BOUND('',#109,.T.);
#92=FACE_OUTER_BOUND('',#110,.T.);
#93=FACE_OUTER_BOUND('',#111,.T.);
#94=FACE_OUTER_BOUND('',#112,.T.);
#95=FACE_OUTER_BOUND('',#113,.T.);
#96=FACE_OUTER_BOUND('',#114,.T.);
#97=FACE_OUTER_BOUND('',#115,.T.);
#98=FACE_OUTER_BOUND('',#116,.T.);
#99=FACE_OUTER_BOUND('',#117,.T.);
#100=FACE_OUTER_BOUND('',#118,.T.);
#101=FACE_OUTER_BOUND('',#119,.T.);
#102=FACE_OUTER_BOUND('',#120,.T.);
#103=FACE_OUTER_BOUND('',#121,.T.);
#104=FACE_OUTER_BOUND('',#122,.T.);
#105=EDGE_LOOP('',(#123,#124,#125,#126));
#106=EDGE_LOOP('',(#127,#128,#129,#130));
#107=EDGE_LOOP('',(#131,#132,#133,#134));
#108=EDGE_LOOP('',(#135,#136,#137,#138,#139,#140));
#109=EDGE_LOOP('',(#141,#142,#143,#144,#145,#146));
#110=EDGE_LOOP('',(#147,#148,#149,#150));
#111=EDGE_LOOP('',(#151,#152,#153,#154));
#112=EDGE_LOOP('',(#155,#156,#157,#158));
#113=EDGE_LOOP('',(#159,#160,#161,#162));
#114=EDGE_LOOP('',(#163,#164,#165,#166,#167,#168));
#115=EDGE_LOOP('',(#169,#170,#171,#172,#173,#174));
#116=EDGE_LOOP('',(#175,#176,#177,#178,#179,#180));
#117=EDGE_LOOP('',(#181,#182,#183,#184));
#118=EDGE_LOOP('',(#185,#186,#187,#188));
#119=EDGE_LOOP('',(#189,#190,#191,#192,#193,#194));
#120=EDGE_LOOP('',(#195,#196,#197,#198));
#121=EDGE_LOOP('',(#199,#200,#201,#202));
#122=EDGE_LOOP('',(#203,#204,#205,#206));
#123=ORIENTED_EDGE('',*,*,#235,.T.);
#124=ORIENTED_EDGE('',*,*,#236,.T.);
#125=ORIENTED_EDGE('',*,*,#237,.F.);
#126=ORIENTED_EDGE('',*,*,#238,.T.);
#127=ORIENTED_EDGE('',*,*,#239,.F.);
#128=ORIENTED_EDGE('',*,*,#240,.T.);
#129=ORIENTED_EDGE('',*,*,#241,.T.);
#130=ORIENTED_EDGE('',*,*,#242,.T.);
#131=ORIENTED_EDGE('',*,*,#243,.T.);
#132=ORIENTED_EDGE('',*,*,#244,.T.);
#133=ORIENTED_EDGE('',*,*,#245,.F.);
#134=ORIENTED_EDGE('',*,*,#246,.T.);
#135=ORIENTED_EDGE('',*,*,#237,.T.);
#136=ORIENTED_EDGE('',*,*,#247,.T.);
#137=ORIENTED_EDGE('',*,*,#239,.T.);
#138=ORIENTED_EDGE('',*,*,#248,.T.);
#139=ORIENTED_EDGE('',*,*,#245,.T.);
#140=ORIENTED_EDGE('',*,*,#249,.T.);
#141=ORIENTED_EDGE('',*,*,#241,.F.);
#142=ORIENTED_EDGE('',*,*,#250,.T.);
#143=ORIENTED_EDGE('',*,*,#235,.F.);
#144=ORIENTED_EDGE('',*,*,#251,.T.);
#145=ORIENTED_EDGE('',*,*,#243,.F.);
#146=ORIENTED_EDGE('',*,*,#252,.T.);
#147=ORIENTED_EDGE('',*,*,#247,.F.);
#148=ORIENTED_EDGE('',*,*,#236,.F.);
#149=ORIENTED_EDGE('',*,*,#250,.F.);
#150=ORIENTED_EDGE('',*,*,#240,.F.);
#151=ORIENTED_EDGE('',*,*,#249,.F.);
#152=ORIENTED_EDGE('',*,*,#244,.F.);
#153=ORIENTED_EDGE('',*,*,#251,.F.);
#154=ORIENTED_EDGE('',*,*,#238,.F.);
#155=ORIENTED_EDGE('',*,*,#248,.F.);
#156=ORIENTED_EDGE('',*,*,#242,.F.);
#157=ORIENTED_EDGE('',*,*,#252,.F.);
#158=ORIENTED_EDGE('',*,*,#246,.F.);
#159=ORIENTED_EDGE('',*,*,#253,.T.);
#160=ORIENTED_EDGE('',*,*,#254,.F.);
#161=ORIENTED_EDGE('',*,*,#255,.T.);
#162=ORIENTED_EDGE('',*,*,#256,.F.);
#163=ORIENTED_EDGE('',*,*,#257,.T.);
#164=ORIENTED_EDGE('',*,*,#258,.F.);
#165=ORIENTED_EDGE('',*,*,#259,.F.);
#166=ORIENTED_EDGE('',*,*,#260,.T.);
#167=ORIENTED_EDGE('',*,*,#261,.T.);
#168=ORIENTED_EDGE('',*,*,#262,.F.);
#169=ORIENTED_EDGE('',*,*,#263,.F.);
#170=ORIENTED_EDGE('',*,*,#264,.T.);
#171=ORIENTED_EDGE('',*,*,#265,.F.);
#172=ORIENTED_EDGE('',*,*,#266,.F.);
#173=ORIENTED_EDGE('',*,*,#267,.T.);
#174=ORIENTED_EDGE('',*,*,#268,.F.);
#175=ORIENTED_EDGE('',*,*,#269,.T.);
#176=ORIENTED_EDGE('',*,*,#263,.T.);
#177=ORIENTED_EDGE('',*,*,#270,.F.);
#178=ORIENTED_EDGE('',*,*,#258,.T.);
#179=ORIENTED_EDGE('',*,*,#271,.T.);
#180=ORIENTED_EDGE('',*,*,#254,.T.);
#181=ORIENTED_EDGE('',*,*,#272,.F.);
#182=ORIENTED_EDGE('',*,*,#261,.F.);
#183=ORIENTED_EDGE('',*,*,#273,.T.);
#184=ORIENTED_EDGE('',*,*,#266,.T.);
#185=ORIENTED_EDGE('',*,*,#274,.F.);
#186=ORIENTED_EDGE('',*,*,#267,.F.);
#187=ORIENTED_EDGE('',*,*,#273,.F.);
#188=ORIENTED_EDGE('',*,*,#260,.F.);
#189=ORIENTED_EDGE('',*,*,#256,.T.);
#190=ORIENTED_EDGE('',*,*,#275,.T.);
#191=ORIENTED_EDGE('',*,*,#262,.T.);
#192=ORIENTED_EDGE('',*,*,#272,.T.);
#193=ORIENTED_EDGE('',*,*,#265,.T.);
#194=ORIENTED_EDGE('',*,*,#276,.T.);
#195=ORIENTED_EDGE('',*,*,#259,.T.);
#196=ORIENTED_EDGE('',*,*,#270,.T.);
#197=ORIENTED_EDGE('',*,*,#268,.T.);
#198=ORIENTED_EDGE('',*,*,#274,.T.);
#199=ORIENTED_EDGE('',*,*,#255,.F.);
#200=ORIENTED_EDGE('',*,*,#271,.F.);
#201=ORIENTED_EDGE('',*,*,#257,.F.);
#202=ORIENTED_EDGE('',*,*,#275,.F.);
#203=ORIENTED_EDGE('',*,*,#264,.F.);
#204=ORIENTED_EDGE('',*,*,#269,.F.);
#205=ORIENTED_EDGE('',*,*,#253,.F.);
#206=ORIENTED_EDGE('',*,*,#276,.F.);
#207=VERTEX_POINT('',#462);
#208=VERTEX_POINT('',#463);
#209=VERTEX_POINT('',#465);
#210=VERTEX_POINT('',#467);
#211=VERTEX_POINT('',#471);
#212=VERTEX_POINT('',#472);
#213=VERTEX_POINT('',#474);
#214=VERTEX_POINT('',#476);
#215=VERTEX_POINT('',#480);
#216=VERTEX_POINT('',#481);
#217=VERTEX_POINT('',#483);
#218=VERTEX_POINT('',#485);
#219=VERTEX_POINT('',#500);
#220=VERTEX_POINT('',#501);
#221=VERTEX_POINT('',#503);
#222=VERTEX_POINT('',#505);
#223=VERTEX_POINT('',#509);
#224=VERTEX_POINT('',#510);
#225=VERTEX_POINT('',#512);
#226=VERTEX_POINT('',#514);
#227=VERTEX_POINT('',#516);
#228=VERTEX_POINT('',#518);
#229=VERTEX_POINT('',#522);
#230=VERTEX_POINT('',#523);
#231=VERTEX_POINT('',#525);
#232=VERTEX_POINT('',#527);
#233=VERTEX_POINT('',#529);
#234=VERTEX_POINT('',#531);
#235=EDGE_CURVE('',#207,#208,#277,.T.);
#236=EDGE_CURVE('',#208,#209,#278,.T.);
#237=EDGE_CURVE('',#210,#209,#279,.T.);
#238=EDGE_CURVE('',#210,#207,#280,.T.);
#239=EDGE_CURVE('',#211,#212,#281,.T.);
#240=EDGE_CURVE('',#211,#213,#282,.T.);
#241=EDGE_CURVE('',#213,#214,#283,.T.);
#242=EDGE_CURVE('',#214,#212,#284,.T.);
#243=EDGE_CURVE('',#215,#216,#285,.T.);
#244=EDGE_CURVE('',#216,#217,#286,.T.);
#245=EDGE_CURVE('',#218,#217,#287,.T.);
#246=EDGE_CURVE('',#218,#215,#288,.T.);
#247=EDGE_CURVE('',#209,#211,#48,.T.);
#248=EDGE_CURVE('',#212,#218,#49,.T.);
#249=EDGE_CURVE('',#217,#210,#50,.T.);
#250=EDGE_CURVE('',#213,#208,#51,.T.);
#251=EDGE_CURVE('',#207,#216,#52,.T.);
#252=EDGE_CURVE('',#215,#214,#53,.T.);
#253=EDGE_CURVE('',#219,#220,#289,.T.);
#254=EDGE_CURVE('',#221,#220,#290,.T.);
#255=EDGE_CURVE('',#221,#222,#291,.T.);
#256=EDGE_CURVE('',#219,#222,#292,.T.);
#257=EDGE_CURVE('',#223,#224,#293,.T.);
#258=EDGE_CURVE('',#225,#224,#294,.T.);
#259=EDGE_CURVE('',#226,#225,#295,.T.);
#260=EDGE_CURVE('',#226,#227,#296,.T.);
#261=EDGE_CURVE('',#227,#228,#297,.T.);
#262=EDGE_CURVE('',#223,#228,#298,.T.);
#263=EDGE_CURVE('',#229,#230,#299,.T.);
#264=EDGE_CURVE('',#229,#231,#300,.T.);
#265=EDGE_CURVE('',#232,#231,#301,.T.);
#266=EDGE_CURVE('',#233,#232,#302,.T.);
#267=EDGE_CURVE('',#233,#234,#303,.T.);
#268=EDGE_CURVE('',#230,#234,#304,.T.);
#269=EDGE_CURVE('',#220,#229,#305,.T.);
#270=EDGE_CURVE('',#225,#230,#306,.T.);
#271=EDGE_CURVE('',#224,#221,#307,.T.);
#272=EDGE_CURVE('',#228,#232,#308,.T.);
#273=EDGE_CURVE('',#227,#233,#309,.T.);
#274=EDGE_CURVE('',#234,#226,#310,.T.);
#275=EDGE_CURVE('',#222,#223,#311,.T.);
#276=EDGE_CURVE('',#231,#219,#312,.T.);
#277=LINE('',#461,#313);
#278=LINE('',#464,#314);
#279=LINE('',#466,#315);
#280=LINE('',#468,#316);
#281=LINE('',#470,#317);
#282=LINE('',#473,#318);
#283=LINE('',#475,#319);
#284=LINE('',#477,#320);
#285=LINE('',#479,#321);
#286=LINE('',#482,#322);
#287=LINE('',#484,#323);
#288=LINE('',#486,#324);
#289=LINE('',#499,#325);
#290=LINE('',#502,#326);
#291=LINE('',#504,#327);
#292=LINE('',#506,#328);
#293=LINE('',#508,#329);
#294=LINE('',#511,#330);
#295=LINE('',#513,#331);
#296=LINE('',#515,#332);
#297=LINE('',#517,#333);
#298=LINE('',#519,#334);
#299=LINE('',#521,#335);
#300=LINE('',#524,#336);
#301=LINE('',#526,#337);
#302=LINE('',#528,#338);
#303=LINE('',#530,#339);
#304=LINE('',#532,#340);
#305=LINE('',#534,#341);
#306=LINE('',#535,#342);
#307=LINE('',#536,#343);
#308=LINE('',#538,#344);
#309=LINE('',#539,#345);
#310=LINE('',#541,#346);
#311=LINE('',#543,#347);
#312=LINE('',#544,#348);
#313=VECTOR('',#376,1.);
#314=VECTOR('',#377,1.);
#315=VECTOR('',#378,1.);
#316=VECTOR('',#379,1.);
#317=VECTOR('',#382,1.);
#318=VECTOR('',#383,1.);
#319=VECTOR('',#384,1.);
#320=VECTOR('',#385,1.);
#321=VECTOR('',#388,1.);
#322=VECTOR('',#389,1.);
#323=VECTOR('',#390,1.);
#324=VECTOR('',#391,1.);
#325=VECTOR('',#416,1.);
#326=VECTOR('',#417,1.);
#327=VECTOR('',#418,1.);
#328=VECTOR('',#419,1.);
#329=VECTOR('',#422,1.);
#330=VECTOR('',#423,1.);
#331=VECTOR('',#424,1.);
#332=VECTOR('',#425,1.);
#333=VECTOR('',#426,1.);
#334=VECTOR('',#427,1.);
#335=VECTOR('',#430,1.);
#336=VECTOR('',#431,1.);
#337=VECTOR('',#432,1.);
#338=VECTOR('',#433,1.);
#339=VECTOR('',#434,1.);
#340=VECTOR('',#435,1.);
#341=VECTOR('',#438,1.);
#342=VECTOR('',#439,1.);
#343=VECTOR('',#440,1.);
#344=VECTOR('',#443,1.);
#345=VECTOR('',#444,1.);
#346=VECTOR('',#447,1.);
#347=VECTOR('',#450,1.);
#348=VECTOR('',#451,1.);
#349=AXIS2_PLACEMENT_3D('',#460,#374,#375);
#350=AXIS2_PLACEMENT_3D('',#469,#380,#381);
#351=AXIS2_PLACEMENT_3D('',#478,#386,#387);
#352=AXIS2_PLACEMENT_3D('',#487,#392,#393);
#353=AXIS2_PLACEMENT_3D('',#488,#394,#395);
#354=AXIS2_PLACEMENT_3D('',#489,#396,#397);
#355=AXIS2_PLACEMENT_3D('',#490,#398,#399);
#356=AXIS2_PLACEMENT_3D('',#491,#400,#401);
#357=AXIS2_PLACEMENT_3D('',#492,#402,#403);
#358=AXIS2_PLACEMENT_3D('',#493,#404,#405);
#359=AXIS2_PLACEMENT_3D('',#494,#406,#407);
#360=AXIS2_PLACEMENT_3D('',#495,#408,#409);
#361=AXIS2_PLACEMENT_3D('',#496,#410,#411);
#362=AXIS2_PLACEMENT_3D('',#497,#412,#413);
#363=AXIS2_PLACEMENT_3D('',#498,#414,#415);
#364=AXIS2_PLACEMENT_3D('',#507,#420,#421);
#365=AXIS2_PLACEMENT_3D('',#520,#428,#429);
#366=AXIS2_PLACEMENT_3D('',#533,#436,#437);
#367=AXIS2_PLACEMENT_3D('',#537,#441,#442);
#368=AXIS2_PLACEMENT_3D('',#540,#445,#446);
#369=AXIS2_PLACEMENT_3D('',#542,#448,#449);
#370=AXIS2_PLACEMENT_3D('',#545,#452,#453);
#371=AXIS2_PLACEMENT_3D('',#546,#454,#455);
#372=AXIS2_PLACEMENT_3D('',#547,#456,#457);
#373=AXIS2_PLACEMENT_3D('',#548,#458,#459);
#374=DIRECTION('',(0.,0.,1.));
#375=DIRECTION('',(1.,0.,0.));
#376=DIRECTION('',(1.,1.66533453693774E-15,1.80411241501588E-16));
#377=DIRECTION('',(-0.313797732273574,-0.0827534934737645,-0.945876758641341));
#378=DIRECTION('',(1.,1.66533453693774E-15,1.80411241501588E-16));
#379=DIRECTION('',(-0.313797732273574,0.0827534934737634,0.945876758641341));
#380=DIRECTION('',(1.60982338570648E-15,-0.996194698091746,0.0871557427476582));
#381=DIRECTION('',(1.,1.66533453693773E-15,1.80411241501588E-16));
#382=DIRECTION('',(-0.5,-0.861281226008775,-0.0905243046083364));
#383=DIRECTION('',(0.313797732273574,0.0827534934737645,0.945876758641341));
#384=DIRECTION('',(-0.5,-0.861281226008775,-0.0905243046083364));
#385=DIRECTION('',(-5.27355936696949E-16,0.45778269766895,-0.889064115637865));
#386=DIRECTION('',(-0.850114077911045,0.468179892449339,0.241067714228967));
#387=DIRECTION('',(0.165245437266676,-0.197489842855138,0.966277241495213));
#388=DIRECTION('',(-0.5,0.861281226008774,0.0905243046083363));
#389=DIRECTION('',(0.313797732273574,-0.0827534934737635,-0.945876758641341));
#390=DIRECTION('',(-0.5,0.861281226008774,0.0905243046083363));
#391=DIRECTION('',(5.55111512312578E-16,-0.457782697668951,0.889064115637865));
#392=DIRECTION('',(0.850114077911044,0.468179892449341,0.241067714228967));
#393=DIRECTION('',(-0.5,0.861281226008774,0.0905243046083363));
#394=DIRECTION('',(-4.85722573273506E-17,0.104528463267653,-0.994521895368273));
#395=DIRECTION('',(0.866025403784438,0.497260947684138,0.0522642316338268));
#396=DIRECTION('',(1.72563323017096E-31,0.104528463267653,-0.994521895368274));
#397=DIRECTION('',(1.4432899320127E-15,-0.994521895368274,-0.104528463267653));
#398=DIRECTION('',(4.16333634234434E-17,0.104528463267653,-0.994521895368274));
#399=DIRECTION('',(-0.86602540378444,0.497260947684135,0.0522642316338265));
#400=DIRECTION('',(0.,0.104528463267653,-0.994521895368273));
#401=DIRECTION('',(-0.5,-0.861281226008775,-0.0905243046083364));
#402=DIRECTION('',(4.85722573273506E-17,-0.104528463267653,0.994521895368273));
#403=DIRECTION('',(0.866025403784438,0.497260947684138,0.0522642316338268));
#404=DIRECTION('',(-4.16333634234434E-17,-0.104528463267653,0.994521895368274));
#405=DIRECTION('',(-0.86602540378444,0.497260947684135,0.0522642316338265));
#406=DIRECTION('',(-1.72563323017096E-31,-0.104528463267653,0.994521895368274));
#407=DIRECTION('',(1.4432899320127E-15,-0.994521895368274,-0.104528463267653));
#408=DIRECTION('',(0.,0.104528463267653,-0.994521895368273));
#409=DIRECTION('',(-0.5,-0.861281226008775,-0.0905243046083364));
#410=DIRECTION('',(0.313797732273574,0.0827534934737645,0.945876758641341));
#411=DIRECTION('',(0.473864233813087,0.849613466503715,-0.231537568114283));
#412=DIRECTION('',(-0.313797732273574,0.0827534934737635,0.945876758641341));
#413=DIRECTION('',(0.807174691885198,-0.501344700822408,0.31164484230824));
#414=DIRECTION('',(5.27355936696949E-16,-0.457782697668951,0.889064115637865));
#415=DIRECTION('',(0.473864233813087,0.782908006537269,0.403122489093053));
#416=DIRECTION('',(0.,0.,1.));
#417=DIRECTION('',(-1.,4.50104975766905E-33,4.73079392672563E-34));
#418=DIRECTION('',(0.,0.,-1.));
#419=DIRECTION('',(1.,-4.50104975766905E-33,0.));
#420=DIRECTION('',(4.50104975766905E-33,1.,0.));
#421=DIRECTION('',(-1.,4.50104975766905E-33,0.));
#422=DIRECTION('',(0.,0.,1.));
#423=DIRECTION('',(-1.23720990545137E-16,0.994521895368273,0.104528463267653));
#424=DIRECTION('',(-4.45818618009971E-17,0.3583679495453,-0.933580426497202));
#425=DIRECTION('',(1.24402480348934E-16,-1.,0.));
#426=DIRECTION('',(0.,0.,-1.));
#427=DIRECTION('',(1.24402480348934E-16,-1.,0.));
#428=DIRECTION('',(1.,1.24402480348934E-16,0.));
#429=DIRECTION('',(-1.2490009027033E-16,1.,0.));
#430=DIRECTION('',(0.,-0.994521895368273,-0.104528463267653));
#431=DIRECTION('',(0.,0.,-1.));
#432=DIRECTION('',(0.,1.,0.));
#433=DIRECTION('',(0.,0.,-1.));
#434=DIRECTION('',(0.,1.,0.));
#435=DIRECTION('',(0.,-0.3583679495453,0.933580426497202));
#436=DIRECTION('',(-1.,0.,0.));
#437=DIRECTION('',(0.,0.,1.));
#438=DIRECTION('',(-0.70516199939428,-0.70516199939428,-0.0741155126847511));
#439=DIRECTION('',(-1.,0.,0.));
#440=DIRECTION('',(-0.70516199939428,0.705161999394279,0.074115512684751));
#441=DIRECTION('',(0.,0.104528463267653,-0.994521895368273));
#442=DIRECTION('',(0.,0.994521895368273,0.104528463267653));
#443=DIRECTION('',(-1.,0.,0.));
#444=DIRECTION('',(-1.,0.,0.));
#445=DIRECTION('',(0.,-1.,0.));
#446=DIRECTION('',(0.,0.,-1.));
#447=DIRECTION('',(1.,0.,0.));
#448=DIRECTION('',(0.,0.,1.));
#449=DIRECTION('',(1.,0.,0.));
#450=DIRECTION('',(0.707106781186548,-0.707106781186547,0.));
#451=DIRECTION('',(0.707106781186547,0.707106781186548,0.));
#452=DIRECTION('',(0.,0.,1.));
#453=DIRECTION('',(1.,0.,0.));
#454=DIRECTION('',(0.,-0.933580426497202,-0.3583679495453));
#455=DIRECTION('',(0.,0.3583679495453,-0.933580426497202));
#456=DIRECTION('',(-0.707106781186547,-0.707106781186548,0.));
#457=DIRECTION('',(0.707106781186548,-0.707106781186547,0.));
#458=DIRECTION('',(0.707106781186548,-0.707106781186547,0.));
#459=DIRECTION('',(0.707106781186547,0.707106781186548,0.));
#460=CARTESIAN_POINT('',(0.,0.,0.));
#461=CARTESIAN_POINT('',(-1.04926131403121,0.500380836812403,24.9835836355164));
#462=CARTESIAN_POINT('',(-0.369170051702376,0.500380836812404,24.9835836355164));
#463=CARTESIAN_POINT('',(9.26917005170232,0.500380836812421,24.9835836355164));
#464=CARTESIAN_POINT('',(8.25312426040624,0.232433270238667,21.9209289351808));
#465=CARTESIAN_POINT('',(8.19853855459476,0.218038144381948,21.7563918937337));
#466=CARTESIAN_POINT('',(9.94926131403116,0.218038144381951,21.7563918937337));
#467=CARTESIAN_POINT('',(0.701461445405188,0.218038144381936,21.7563918937337));
#468=CARTESIAN_POINT('',(-0.436137969624591,0.518041350540706,25.1854442311246));
#469=CARTESIAN_POINT('',(-1.04926131403121,0.500380836812403,24.9835836355164));
#470=CARTESIAN_POINT('',(9.41394556547737,1.14015295281436,21.8533100655011));
#471=CARTESIAN_POINT('',(8.53858418575918,-0.367711691834484,21.6948271051412));
#472=CARTESIAN_POINT('',(4.79004563116441,-6.8248034559196,21.0161594132367));
#473=CARTESIAN_POINT('',(9.67618360078896,-0.0677084856757102,25.123879442532));
#474=CARTESIAN_POINT('',(9.60921568286674,-0.085368999404012,24.9220188469239));
#475=CARTESIAN_POINT('',(9.94926131403116,0.50038083681242,24.9835836355164));
#476=CARTESIAN_POINT('',(4.79004563116441,-8.38669038035396,24.0495148114845));
#477=CARTESIAN_POINT('',(4.7900456311644,-6.90443561731062,21.1708137885635));
#478=CARTESIAN_POINT('',(9.94926131403116,0.50038083681242,24.9835836355164));
#479=CARTESIAN_POINT('',(4.45,-8.9724402165704,23.987950022892));
#480=CARTESIAN_POINT('',(4.10995436883557,-8.38669038035396,24.0495148114845));
#481=CARTESIAN_POINT('',(-0.709215682866792,-0.0853689994040324,24.9220188469239));
#482=CARTESIAN_POINT('',(0.306830108429291,-0.353316565977779,21.8593641465883));
#483=CARTESIAN_POINT('',(0.361415814240774,-0.367711691834499,21.6948271051412));
#484=CARTESIAN_POINT('',(2.23568509153817,-3.59625757387705,21.3554932591889));
#485=CARTESIAN_POINT('',(4.10995436883557,-6.82480345591961,21.0161594132367));
#486=CARTESIAN_POINT('',(4.10995436883557,-8.48438628752826,24.2392509586907));
#487=CARTESIAN_POINT('',(4.45,-8.9724402165704,23.987950022892));
#488=CARTESIAN_POINT('',(8.17284218725117,-0.187216278942116,21.7137979374822));
#489=CARTESIAN_POINT('',(4.45,-6.60004444548791,21.0397825371472));
#490=CARTESIAN_POINT('',(0.727157812748785,-0.18721627894213,21.7137979374822));
#491=CARTESIAN_POINT('',(9.94926131403116,0.832781350003557,21.8210040082453));
#492=CARTESIAN_POINT('',(9.24347368435873,0.095126413488356,24.9409896792649));
#493=CARTESIAN_POINT('',(-0.343473684358782,0.0951264134883391,24.9409896792649));
#494=CARTESIAN_POINT('',(4.45,-8.16193136992227,24.073137935395));
#495=CARTESIAN_POINT('',(9.94926131403116,0.500380836812419,24.9835836355164));
#496=CARTESIAN_POINT('',(9.33613796962454,0.119563471304025,25.2203065282236));
#497=CARTESIAN_POINT('',(-0.436137969624592,0.119563471304008,25.2203065282236));
#498=CARTESIAN_POINT('',(4.45,-8.29711433054852,24.3356780443823));
#499=CARTESIAN_POINT('',(0.5,-2.25052487883452E-33,25.));
#500=CARTESIAN_POINT('',(0.5,-2.25052487883452E-33,0.));
#501=CARTESIAN_POINT('',(0.5,0.,24.75));
#502=CARTESIAN_POINT('',(-1.18269848168141E-34,5.32338471436766E-67,24.75));
#503=CARTESIAN_POINT('',(8.4,-3.780881796442E-32,24.75));
#504=CARTESIAN_POINT('',(8.4,-3.780881796442E-32,25.));
#505=CARTESIAN_POINT('',(8.4,4.33680868994202E-16,0.));
#506=CARTESIAN_POINT('',(0.,0.,0.));
#507=CARTESIAN_POINT('',(0.,0.,25.));
#508=CARTESIAN_POINT('',(8.9,-0.5,25.));
#509=CARTESIAN_POINT('',(8.9,-0.5,0.));
#510=CARTESIAN_POINT('',(8.9,-0.5,24.6974478823672));
#511=CARTESIAN_POINT('',(8.9,0.0259889613522199,24.7527315499083));
#512=CARTESIAN_POINT('',(8.9,-19.3931769596813,22.7116949662807));
#513=CARTESIAN_POINT('',(8.9,-17.6681455007912,18.2178343764735));
#514=CARTESIAN_POINT('',(8.9,-20.2715749633166,25.));
#515=CARTESIAN_POINT('',(8.9,-4.00593428432545E-32,25.));
#516=CARTESIAN_POINT('',(8.9,-125.5,25.));
#517=CARTESIAN_POINT('',(8.9,-125.5,25.));
#518=CARTESIAN_POINT('',(8.9,-125.5,0.));
#519=CARTESIAN_POINT('',(8.9,-4.00593428432545E-32,0.));
#520=CARTESIAN_POINT('',(8.9,-4.00593428432545E-32,25.));
#521=CARTESIAN_POINT('',(0.,0.,24.75));
#522=CARTESIAN_POINT('',(6.7762635780344E-18,-0.5,24.6974478823672));
#523=CARTESIAN_POINT('',(0.,-19.3931769596813,22.7116949662807));
#524=CARTESIAN_POINT('',(0.,-0.5,25.));
#525=CARTESIAN_POINT('',(6.93889390390723E-15,-0.49999999999998,0.));
#526=CARTESIAN_POINT('',(0.,-125.5,0.));
#527=CARTESIAN_POINT('',(0.,-125.5,0.));
#528=CARTESIAN_POINT('',(0.,-125.5,25.));
#529=CARTESIAN_POINT('',(0.,-125.5,25.));
#530=CARTESIAN_POINT('',(0.,-125.5,25.));
#531=CARTESIAN_POINT('',(0.,-20.2715749633166,25.));
#532=CARTESIAN_POINT('',(0.,-20.1756089545578,24.75));
#533=CARTESIAN_POINT('',(0.,-125.5,25.));
#534=CARTESIAN_POINT('',(0.0158124153879896,-0.484187584612011,24.6991098341942));
#535=CARTESIAN_POINT('',(10.,-19.3931769596813,22.7116949662807));
#536=CARTESIAN_POINT('',(8.38693413922226,0.0130658607777278,24.7513732773051));
#537=CARTESIAN_POINT('',(10.,0.,24.75));
#538=CARTESIAN_POINT('',(8.9,-125.5,0.));
#539=CARTESIAN_POINT('',(8.9,-125.5,25.));
#540=CARTESIAN_POINT('',(8.9,-125.5,25.));
#541=CARTESIAN_POINT('',(0.,-20.2715749633166,25.));
#542=CARTESIAN_POINT('',(0.,0.,25.));
#543=CARTESIAN_POINT('',(8.4,-3.780881796442E-32,0.));
#544=CARTESIAN_POINT('',(0.,-0.5,0.));
#545=CARTESIAN_POINT('',(0.,0.,0.));
#546=CARTESIAN_POINT('',(10.,-20.1756089545578,24.75));
#547=CARTESIAN_POINT('',(8.4,-3.780881796442E-32,25.));
#548=CARTESIAN_POINT('',(0.,-0.5,25.));
#549=MECHANICAL_DESIGN_GEOMETRIC_PRESENTATION_REPRESENTATION('',(#25,#26),
#550);
#550=(
GEOMETRIC_REPRESENTATION_CONTEXT(3)
GLOBAL_UNCERTAINTY_ASSIGNED_CONTEXT((#551))
GLOBAL_UNIT_ASSIGNED_CONTEXT((#557,#553,#552))
REPRESENTATION_CONTEXT('CTCPN2509K11_SIM','TOP_LEVEL_ASSEMBLY_PART')
);
#551=UNCERTAINTY_MEASURE_WITH_UNIT(LENGTH_MEASURE(2.E-5),#557,
'DISTANCE_ACCURACY_VALUE','Maximum Tolerance applied to model');
#552=(
NAMED_UNIT(*)
SI_UNIT($,.STERADIAN.)
SOLID_ANGLE_UNIT()
);
#553=(
CONVERSION_BASED_UNIT('DEGREE',#555)
NAMED_UNIT(#554)
PLANE_ANGLE_UNIT()
);
#554=DIMENSIONAL_EXPONENTS(0.,0.,0.,0.,0.,0.,0.);
#555=PLANE_ANGLE_MEASURE_WITH_UNIT(PLANE_ANGLE_MEASURE(0.0174532925),#556);
#556=(
NAMED_UNIT(*)
PLANE_ANGLE_UNIT()
SI_UNIT($,.RADIAN.)
);
#557=(
LENGTH_UNIT()
NAMED_UNIT(*)
SI_UNIT(.MILLI.,.METRE.)
);
ENDSEC;
END-ISO-10303-21;
