ISO-10303-21;
HEADER;
/* Generated by software containing ST-Developer
 * from STEP Tools, Inc. (www.steptools.com) 
 */
/* OPTION: using custom schema-name function */

FILE_DESCRIPTION(
/* description */ (''),
/* implementation_level */ '2;1');

FILE_NAME(
/* name */ '8N1R027B16-SSO09-C.stp',
/* time_stamp */ '2020-01-08T14:14:35+01:00',
/* author */ (''),
/* organization */ (''),
/* preprocessor_version */ 'ST-DEVELOPER v16.7',
/* originating_system */ 'SIEMENS PLM Software NX 12.0',
/* authorisation */ '');

FILE_SCHEMA (('AUTOMOTIVE_DESIGN { 1 0 10303 214 3 1 1 1 }'));
ENDSEC;

DATA;
#10=PROPERTY_DEFINITION_REPRESENTATION(#14,#12);
#11=PROPERTY_DEFINITION_REPRESENTATION(#15,#13);
#12=REPRESENTATION('',(#16),#358);
#13=REPRESENTATION('',(#17),#358);
#14=PROPERTY_DEFINITION('pmi validation property','',#21);
#15=PROPERTY_DEFINITION('pmi validation property','',#21);
#16=VALUE_REPRESENTATION_ITEM('number of annotations',COUNT_MEASURE(0.));
#17=VALUE_REPRESENTATION_ITEM('number of views',COUNT_MEASURE(0.));
#18=SHAPE_REPRESENTATION_RELATIONSHIP('None',
'relationship between wq702BE00ED2ryqt-None and wq702BE00ED2ryqt-None',
#30,#19);
#19=ADVANCED_BREP_SHAPE_REPRESENTATION('wq702BE00ED2ryqt-None',(#51,#52),
#358);
#20=SHAPE_DEFINITION_REPRESENTATION(#21,#30);
#21=PRODUCT_DEFINITION_SHAPE('','',#22);
#22=PRODUCT_DEFINITION(' ','',#24,#23);
#23=PRODUCT_DEFINITION_CONTEXT('part definition',#29,'design');
#24=PRODUCT_DEFINITION_FORMATION_WITH_SPECIFIED_SOURCE(' ',' ',#26,
 .NOT_KNOWN.);
#25=PRODUCT_RELATED_PRODUCT_CATEGORY('part','',(#26));
#26=PRODUCT('wq702BE00ED2ryqt','wq702BE00ED2ryqt',' ',(#27));
#27=PRODUCT_CONTEXT(' ',#29,'mechanical');
#28=APPLICATION_PROTOCOL_DEFINITION('international standard',
'automotive_design',2010,#29);
#29=APPLICATION_CONTEXT(
'core data for automotive mechanical design processes');
#30=SHAPE_REPRESENTATION('wq702BE00ED2ryqt-None',(#217),#358);
#31=VERTEX_LOOP('',#182);
#32=VERTEX_LOOP('',#188);
#33=PRESENTATION_LAYER_ASSIGNMENT('14','Layer 14',(#51));
#34=PRESENTATION_LAYER_ASSIGNMENT('96','Layer 96',(#52));
#35=STYLED_ITEM('',(#37),#51);
#36=STYLED_ITEM('',(#38),#52);
#37=PRESENTATION_STYLE_ASSIGNMENT((#39));
#38=PRESENTATION_STYLE_ASSIGNMENT((#40));
#39=SURFACE_STYLE_USAGE(.BOTH.,#41);
#40=SURFACE_STYLE_USAGE(.BOTH.,#42);
#41=SURFACE_SIDE_STYLE('',(#43));
#42=SURFACE_SIDE_STYLE('',(#44));
#43=SURFACE_STYLE_FILL_AREA(#45);
#44=SURFACE_STYLE_FILL_AREA(#46);
#45=FILL_AREA_STYLE('',(#47));
#46=FILL_AREA_STYLE('',(#48));
#47=FILL_AREA_STYLE_COLOUR('',#49);
#48=FILL_AREA_STYLE_COLOUR('',#50);
#49=COLOUR_RGB('Silver Gray',0.6,0.6,0.6);
#50=COLOUR_RGB('Light Gray',0.8,0.8,0.8);
#51=MANIFOLD_SOLID_BREP('',#53);
#52=MANIFOLD_SOLID_BREP('',#54);
#53=CLOSED_SHELL('',(#97,#98,#99,#100,#101,#102,#103,#104,#105));
#54=CLOSED_SHELL('',(#106,#107,#108,#109,#110,#111,#112));
#55=TOROIDAL_SURFACE('',#229,8.8,1.05);
#56=TOROIDAL_SURFACE('',#238,3.77000000000002,0.400000000000005);
#57=TOROIDAL_SURFACE('',#242,9.9359711319467,0.399999999999983);
#58=TOROIDAL_SURFACE('',#246,3.76999999999998,0.399999999999997);
#59=CYLINDRICAL_SURFACE('',#223,9.70271438332319);
#60=CYLINDRICAL_SURFACE('',#227,7.75);
#61=CYLINDRICAL_SURFACE('',#231,8.);
#62=CONICAL_SURFACE('',#221,5.0651255348982,42.9999999999999);
#63=CONICAL_SURFACE('',#225,9.70271438332319,47.0000000000004);
#64=CONICAL_SURFACE('',#234,7.,45.);
#65=CONICAL_SURFACE('',#236,3.02424751907893E-13,44.999999999995);
#66=CONICAL_SURFACE('',#240,4.05284271247465,44.9999999999998);
#67=CONICAL_SURFACE('',#244,10.2188138444213,44.9999999999999);
#68=CONICAL_SURFACE('',#247,3.48715728752537,44.9999999999948);
#69=FACE_BOUND('',#118,.T.);
#70=FACE_BOUND('',#119,.T.);
#71=FACE_BOUND('',#120,.T.);
#72=FACE_BOUND('',#121,.T.);
#73=FACE_BOUND('',#122,.T.);
#74=FACE_BOUND('',#123,.T.);
#75=FACE_BOUND('',#124,.T.);
#76=FACE_BOUND('',#125,.T.);
#77=FACE_BOUND('',#126,.T.);
#78=FACE_BOUND('',#127,.T.);
#79=FACE_BOUND('',#128,.T.);
#80=FACE_BOUND('',#129,.T.);
#81=FACE_BOUND('',#131,.T.);
#82=FACE_BOUND('',#132,.T.);
#83=FACE_BOUND('',#133,.T.);
#84=FACE_BOUND('',#31,.T.);
#85=FACE_BOUND('',#134,.T.);
#86=FACE_BOUND('',#135,.T.);
#87=FACE_BOUND('',#136,.T.);
#88=FACE_BOUND('',#137,.T.);
#89=FACE_BOUND('',#138,.T.);
#90=FACE_BOUND('',#139,.T.);
#91=FACE_BOUND('',#140,.T.);
#92=FACE_BOUND('',#141,.T.);
#93=FACE_BOUND('',#142,.T.);
#94=FACE_BOUND('',#143,.T.);
#95=FACE_BOUND('',#32,.T.);
#96=FACE_BOUND('',#144,.T.);
#97=ADVANCED_FACE('',(#115),#113,.F.);
#98=ADVANCED_FACE('',(#69,#70),#62,.T.);
#99=ADVANCED_FACE('',(#71,#72),#59,.T.);
#100=ADVANCED_FACE('',(#73,#74),#63,.T.);
#101=ADVANCED_FACE('',(#75,#76),#60,.T.);
#102=ADVANCED_FACE('',(#77,#78),#55,.F.);
#103=ADVANCED_FACE('',(#79,#80),#61,.T.);
#104=ADVANCED_FACE('',(#116),#114,.F.);
#105=ADVANCED_FACE('',(#81,#82),#64,.T.);
#106=ADVANCED_FACE('',(#83,#84),#65,.F.);
#107=ADVANCED_FACE('',(#85,#86),#56,.T.);
#108=ADVANCED_FACE('',(#87,#88),#66,.T.);
#109=ADVANCED_FACE('',(#89,#90),#57,.T.);
#110=ADVANCED_FACE('',(#91,#92),#67,.T.);
#111=ADVANCED_FACE('',(#93,#94),#58,.T.);
#112=ADVANCED_FACE('',(#95,#96),#68,.F.);
#113=PLANE('',#219);
#114=PLANE('',#233);
#115=FACE_OUTER_BOUND('',#117,.T.);
#116=FACE_OUTER_BOUND('',#130,.T.);
#117=EDGE_LOOP('',(#145));
#118=EDGE_LOOP('',(#146));
#119=EDGE_LOOP('',(#147));
#120=EDGE_LOOP('',(#148));
#121=EDGE_LOOP('',(#149));
#122=EDGE_LOOP('',(#150));
#123=EDGE_LOOP('',(#151));
#124=EDGE_LOOP('',(#152));
#125=EDGE_LOOP('',(#153));
#126=EDGE_LOOP('',(#154));
#127=EDGE_LOOP('',(#155));
#128=EDGE_LOOP('',(#156));
#129=EDGE_LOOP('',(#157));
#130=EDGE_LOOP('',(#158));
#131=EDGE_LOOP('',(#159));
#132=EDGE_LOOP('',(#160));
#133=EDGE_LOOP('',(#161));
#134=EDGE_LOOP('',(#162));
#135=EDGE_LOOP('',(#163));
#136=EDGE_LOOP('',(#164));
#137=EDGE_LOOP('',(#165));
#138=EDGE_LOOP('',(#166));
#139=EDGE_LOOP('',(#167));
#140=EDGE_LOOP('',(#168));
#141=EDGE_LOOP('',(#169));
#142=EDGE_LOOP('',(#170));
#143=EDGE_LOOP('',(#171));
#144=EDGE_LOOP('',(#172));
#145=ORIENTED_EDGE('',*,*,#189,.F.);
#146=ORIENTED_EDGE('',*,*,#190,.F.);
#147=ORIENTED_EDGE('',*,*,#189,.T.);
#148=ORIENTED_EDGE('',*,*,#191,.F.);
#149=ORIENTED_EDGE('',*,*,#190,.T.);
#150=ORIENTED_EDGE('',*,*,#192,.F.);
#151=ORIENTED_EDGE('',*,*,#191,.T.);
#152=ORIENTED_EDGE('',*,*,#193,.F.);
#153=ORIENTED_EDGE('',*,*,#192,.T.);
#154=ORIENTED_EDGE('',*,*,#194,.F.);
#155=ORIENTED_EDGE('',*,*,#193,.T.);
#156=ORIENTED_EDGE('',*,*,#195,.T.);
#157=ORIENTED_EDGE('',*,*,#194,.T.);
#158=ORIENTED_EDGE('',*,*,#196,.T.);
#159=ORIENTED_EDGE('',*,*,#195,.F.);
#160=ORIENTED_EDGE('',*,*,#196,.F.);
#161=ORIENTED_EDGE('',*,*,#197,.F.);
#162=ORIENTED_EDGE('',*,*,#198,.F.);
#163=ORIENTED_EDGE('',*,*,#197,.T.);
#164=ORIENTED_EDGE('',*,*,#199,.F.);
#165=ORIENTED_EDGE('',*,*,#198,.T.);
#166=ORIENTED_EDGE('',*,*,#200,.F.);
#167=ORIENTED_EDGE('',*,*,#199,.T.);
#168=ORIENTED_EDGE('',*,*,#201,.F.);
#169=ORIENTED_EDGE('',*,*,#200,.T.);
#170=ORIENTED_EDGE('',*,*,#202,.F.);
#171=ORIENTED_EDGE('',*,*,#201,.T.);
#172=ORIENTED_EDGE('',*,*,#202,.T.);
#173=VERTEX_POINT('',#312);
#174=VERTEX_POINT('',#315);
#175=VERTEX_POINT('',#318);
#176=VERTEX_POINT('',#321);
#177=VERTEX_POINT('',#324);
#178=VERTEX_POINT('',#327);
#179=VERTEX_POINT('',#330);
#180=VERTEX_POINT('',#333);
#181=VERTEX_POINT('',#337);
#182=VERTEX_POINT('',#338);
#183=VERTEX_POINT('',#341);
#184=VERTEX_POINT('',#344);
#185=VERTEX_POINT('',#347);
#186=VERTEX_POINT('',#350);
#187=VERTEX_POINT('',#353);
#188=VERTEX_POINT('',#355);
#189=EDGE_CURVE('',#173,#173,#203,.T.);
#190=EDGE_CURVE('',#174,#174,#204,.T.);
#191=EDGE_CURVE('',#175,#175,#205,.T.);
#192=EDGE_CURVE('',#176,#176,#206,.T.);
#193=EDGE_CURVE('',#177,#177,#207,.T.);
#194=EDGE_CURVE('',#178,#178,#208,.T.);
#195=EDGE_CURVE('',#179,#179,#209,.T.);
#196=EDGE_CURVE('',#180,#180,#210,.T.);
#197=EDGE_CURVE('',#181,#181,#211,.T.);
#198=EDGE_CURVE('',#183,#183,#212,.T.);
#199=EDGE_CURVE('',#184,#184,#213,.T.);
#200=EDGE_CURVE('',#185,#185,#214,.T.);
#201=EDGE_CURVE('',#186,#186,#215,.T.);
#202=EDGE_CURVE('',#187,#187,#216,.T.);
#203=CIRCLE('',#218,5.0651255348982);
#204=CIRCLE('',#220,9.70271438332319);
#205=CIRCLE('',#222,9.70271438332319);
#206=CIRCLE('',#224,7.75);
#207=CIRCLE('',#226,7.75);
#208=CIRCLE('',#228,8.00000000000001);
#209=CIRCLE('',#230,8.);
#210=CIRCLE('',#232,7.);
#211=CIRCLE('',#235,3.48715728752539);
#212=CIRCLE('',#237,4.05284271247465);
#213=CIRCLE('',#239,10.2188138444213);
#214=CIRCLE('',#241,10.2188138444213);
#215=CIRCLE('',#243,4.05284271247461);
#216=CIRCLE('',#245,3.48715728752537);
#217=AXIS2_PLACEMENT_3D('',#310,#248,#249);
#218=AXIS2_PLACEMENT_3D('',#311,#250,#251);
#219=AXIS2_PLACEMENT_3D('',#313,#252,#253);
#220=AXIS2_PLACEMENT_3D('',#314,#254,#255);
#221=AXIS2_PLACEMENT_3D('',#316,#256,#257);
#222=AXIS2_PLACEMENT_3D('',#317,#258,#259);
#223=AXIS2_PLACEMENT_3D('',#319,#260,#261);
#224=AXIS2_PLACEMENT_3D('',#320,#262,#263);
#225=AXIS2_PLACEMENT_3D('',#322,#264,#265);
#226=AXIS2_PLACEMENT_3D('',#323,#266,#267);
#227=AXIS2_PLACEMENT_3D('',#325,#268,#269);
#228=AXIS2_PLACEMENT_3D('',#326,#270,#271);
#229=AXIS2_PLACEMENT_3D('',#328,#272,#273);
#230=AXIS2_PLACEMENT_3D('',#329,#274,#275);
#231=AXIS2_PLACEMENT_3D('',#331,#276,#277);
#232=AXIS2_PLACEMENT_3D('',#332,#278,#279);
#233=AXIS2_PLACEMENT_3D('',#334,#280,#281);
#234=AXIS2_PLACEMENT_3D('',#335,#282,#283);
#235=AXIS2_PLACEMENT_3D('',#336,#284,#285);
#236=AXIS2_PLACEMENT_3D('',#339,#286,#287);
#237=AXIS2_PLACEMENT_3D('',#340,#288,#289);
#238=AXIS2_PLACEMENT_3D('',#342,#290,#291);
#239=AXIS2_PLACEMENT_3D('',#343,#292,#293);
#240=AXIS2_PLACEMENT_3D('',#345,#294,#295);
#241=AXIS2_PLACEMENT_3D('',#346,#296,#297);
#242=AXIS2_PLACEMENT_3D('',#348,#298,#299);
#243=AXIS2_PLACEMENT_3D('',#349,#300,#301);
#244=AXIS2_PLACEMENT_3D('',#351,#302,#303);
#245=AXIS2_PLACEMENT_3D('',#352,#304,#305);
#246=AXIS2_PLACEMENT_3D('',#354,#306,#307);
#247=AXIS2_PLACEMENT_3D('',#356,#308,#309);
#248=DIRECTION('',(0.,0.,1.));
#249=DIRECTION('',(1.,0.,0.));
#250=DIRECTION('',(0.,0.,1.));
#251=DIRECTION('',(1.,0.,0.));
#252=DIRECTION('',(0.,0.,1.));
#253=DIRECTION('',(1.,0.,0.));
#254=DIRECTION('',(0.,0.,1.));
#255=DIRECTION('',(1.,0.,0.));
#256=DIRECTION('',(0.,0.,1.));
#257=DIRECTION('',(1.,0.,-4.4405121721984E-17));
#258=DIRECTION('',(0.,0.,1.));
#259=DIRECTION('',(1.,0.,0.));
#260=DIRECTION('',(0.,0.,1.));
#261=DIRECTION('',(1.,0.,0.));
#262=DIRECTION('',(0.,0.,1.));
#263=DIRECTION('',(1.,0.,0.));
#264=DIRECTION('',(0.,0.,-1.));
#265=DIRECTION('',(-1.,0.,-2.56504099355673E-17));
#266=DIRECTION('',(0.,0.,1.));
#267=DIRECTION('',(1.,0.,0.));
#268=DIRECTION('',(0.,0.,1.));
#269=DIRECTION('',(1.,0.,0.));
#270=DIRECTION('',(0.,0.,1.));
#271=DIRECTION('',(1.,0.,0.));
#272=DIRECTION('',(0.,0.,1.));
#273=DIRECTION('',(1.,0.,0.));
#274=DIRECTION('',(0.,0.,-1.));
#275=DIRECTION('',(-1.,0.,0.));
#276=DIRECTION('',(0.,0.,1.));
#277=DIRECTION('',(1.,0.,0.));
#278=DIRECTION('',(0.,0.,1.));
#279=DIRECTION('',(-1.,0.,0.));
#280=DIRECTION('',(0.,0.,-1.));
#281=DIRECTION('',(-1.,0.,0.));
#282=DIRECTION('',(0.,0.,-1.));
#283=DIRECTION('',(-1.,0.,0.));
#284=DIRECTION('',(0.,0.,-1.));
#285=DIRECTION('',(-1.,0.,0.));
#286=DIRECTION('',(0.,0.,1.));
#287=DIRECTION('',(1.,0.,-1.38777878078169E-17));
#288=DIRECTION('',(0.,0.,-1.));
#289=DIRECTION('',(-1.,0.,0.));
#290=DIRECTION('',(0.,0.,-1.));
#291=DIRECTION('',(-1.,0.,0.));
#292=DIRECTION('',(0.,0.,-1.));
#293=DIRECTION('',(-1.,0.,0.));
#294=DIRECTION('',(0.,0.,-1.));
#295=DIRECTION('',(-1.,0.,-1.38217703465919E-17));
#296=DIRECTION('',(0.,0.,-1.));
#297=DIRECTION('',(-1.,0.,0.));
#298=DIRECTION('',(0.,0.,-1.));
#299=DIRECTION('',(-1.,0.,0.));
#300=DIRECTION('',(0.,0.,-1.));
#301=DIRECTION('',(-1.,0.,0.));
#302=DIRECTION('',(0.,0.,1.));
#303=DIRECTION('',(1.,0.,1.3737407794854E-17));
#304=DIRECTION('',(0.,0.,-1.));
#305=DIRECTION('',(-1.,0.,0.));
#306=DIRECTION('',(0.,0.,-1.));
#307=DIRECTION('',(-1.,0.,0.));
#308=DIRECTION('',(0.,0.,-1.));
#309=DIRECTION('',(-1.,0.,0.));
#310=CARTESIAN_POINT('',(0.,0.,0.));
#311=CARTESIAN_POINT('',(0.,0.,-88.6141407923772));
#312=CARTESIAN_POINT('',(5.0651255348982,0.,-88.6141407923772));
#313=CARTESIAN_POINT('',(0.,0.,-88.6141407923772));
#314=CARTESIAN_POINT('',(0.,0.,-83.6409356213669));
#315=CARTESIAN_POINT('',(9.70271438332319,0.,-83.6409356213669));
#316=CARTESIAN_POINT('',(0.,0.,-88.6141407923772));
#317=CARTESIAN_POINT('',(0.,0.,-83.2209356213669));
#318=CARTESIAN_POINT('',(9.70271438332319,0.,-83.2209356213669));
#319=CARTESIAN_POINT('',(0.,0.,-88.6141407923772));
#320=CARTESIAN_POINT('',(0.,0.,-81.4));
#321=CARTESIAN_POINT('',(7.75,0.,-81.4));
#322=CARTESIAN_POINT('',(0.,0.,-83.2209356213669));
#323=CARTESIAN_POINT('',(0.,0.,-63.6800735254336));
#324=CARTESIAN_POINT('',(7.75,0.,-63.6800735254336));
#325=CARTESIAN_POINT('',(0.,0.,-88.6141407923772));
#326=CARTESIAN_POINT('',(0.,0.,-63.));
#327=CARTESIAN_POINT('',(8.00000000000001,0.,-63.));
#328=CARTESIAN_POINT('',(0.,0.,-63.6800735254368));
#329=CARTESIAN_POINT('',(0.,0.,-1.));
#330=CARTESIAN_POINT('',(-8.,0.,-1.));
#331=CARTESIAN_POINT('',(0.,0.,-88.6141407923772));
#332=CARTESIAN_POINT('',(0.,0.,0.));
#333=CARTESIAN_POINT('',(-7.,0.,0.));
#334=CARTESIAN_POINT('',(0.,-8.,0.));
#335=CARTESIAN_POINT('',(0.,0.,0.));
#336=CARTESIAN_POINT('',(0.,0.,-76.9811861555787));
#337=CARTESIAN_POINT('',(-3.48715728752539,0.,-76.9811861555787));
#338=CARTESIAN_POINT('',(0.,-3.02424751907893E-13,-80.4683434431044));
#339=CARTESIAN_POINT('',(0.,0.,-80.4683434431044));
#340=CARTESIAN_POINT('',(0.,0.,-76.9811861555787));
#341=CARTESIAN_POINT('',(-4.05284271247465,0.,-76.9811861555787));
#342=CARTESIAN_POINT('',(0.,0.,-77.2640288680533));
#343=CARTESIAN_POINT('',(0.,0.,-83.1471572875254));
#344=CARTESIAN_POINT('',(-10.2188138444213,0.,-83.1471572875254));
#345=CARTESIAN_POINT('',(0.,0.,-76.9811861555787));
#346=CARTESIAN_POINT('',(0.,0.,-83.7128427124746));
#347=CARTESIAN_POINT('',(-10.2188138444213,0.,-83.7128427124746));
#348=CARTESIAN_POINT('',(0.,0.,-83.43));
#349=CARTESIAN_POINT('',(0.,0.,-89.8788138444213));
#350=CARTESIAN_POINT('',(-4.05284271247461,0.,-89.8788138444213));
#351=CARTESIAN_POINT('',(0.,0.,-83.7128427124746));
#352=CARTESIAN_POINT('',(0.,0.,-89.8788138444213));
#353=CARTESIAN_POINT('',(-3.48715728752537,0.,-89.8788138444213));
#354=CARTESIAN_POINT('',(0.,0.,-89.5959711319467));
#355=CARTESIAN_POINT('',(0.,-3.16153353496773E-13,-86.3916565568956));
#356=CARTESIAN_POINT('',(0.,0.,-89.8788138444213));
#357=MECHANICAL_DESIGN_GEOMETRIC_PRESENTATION_REPRESENTATION('',(#35,#36),
#358);
#358=(
GEOMETRIC_REPRESENTATION_CONTEXT(3)
GLOBAL_UNCERTAINTY_ASSIGNED_CONTEXT((#359))
GLOBAL_UNIT_ASSIGNED_CONTEXT((#365,#361,#360))
REPRESENTATION_CONTEXT('8N1R027B16-SSO09-C','TOP_LEVEL_ASSEMBLY_PART')
);
#359=UNCERTAINTY_MEASURE_WITH_UNIT(LENGTH_MEASURE(2.E-5),#365,
'DISTANCE_ACCURACY_VALUE','Maximum Tolerance applied to model');
#360=(
NAMED_UNIT(*)
SI_UNIT($,.STERADIAN.)
SOLID_ANGLE_UNIT()
);
#361=(
CONVERSION_BASED_UNIT('DEGREE',#363)
NAMED_UNIT(#362)
PLANE_ANGLE_UNIT()
);
#362=DIMENSIONAL_EXPONENTS(0.,0.,0.,0.,0.,0.,0.);
#363=PLANE_ANGLE_MEASURE_WITH_UNIT(PLANE_ANGLE_MEASURE(0.0174532925),#364);
#364=(
NAMED_UNIT(*)
PLANE_ANGLE_UNIT()
SI_UNIT($,.RADIAN.)
);
#365=(
LENGTH_UNIT()
NAMED_UNIT(*)
SI_UNIT(.MILLI.,.METRE.)
);
ENDSEC;
END-ISO-10303-21;
