ISO-10303-21;
HEADER;
/* Generated by software containing ST-Developer
 * from STEP Tools, Inc. (www.steptools.com) 
 */
/* OPTION: using custom schema-name function */

FILE_DESCRIPTION(
/* description */ (''),
/* implementation_level */ '2;1');

FILE_NAME(
/* name */ '40N3R045A32_SOD05_C_115009861ndi000_00_SIM.stp',
/* time_stamp */ '2019-12-19T12:40:57+01:00',
/* author */ (''),
/* organization */ (''),
/* preprocessor_version */ 'ST-DEVELOPER v16.7',
/* originating_system */ 'SIEMENS PLM Software NX 12.0',
/* authorisation */ '');

FILE_SCHEMA (('AUTOMOTIVE_DESIGN { 1 0 10303 214 3 1 1 1 }'));
ENDSEC;

DATA;
#10=PROPERTY_DEFINITION_REPRESENTATION(#14,#12);
#11=PROPERTY_DEFINITION_REPRESENTATION(#15,#13);
#12=REPRESENTATION('',(#16),#620);
#13=REPRESENTATION('',(#17),#620);
#14=PROPERTY_DEFINITION('pmi validation property','',#21);
#15=PROPERTY_DEFINITION('pmi validation property','',#21);
#16=VALUE_REPRESENTATION_ITEM('number of annotations',COUNT_MEASURE(0.));
#17=VALUE_REPRESENTATION_ITEM('number of views',COUNT_MEASURE(0.));
#18=SHAPE_REPRESENTATION_RELATIONSHIP('None',
'relationship between wq7020448C39r0kt-None and wq7020448C39r0kt-None',
#30,#19);
#19=ADVANCED_BREP_SHAPE_REPRESENTATION('wq7020448C39r0kt-None',(#68,#69),
#620);
#20=SHAPE_DEFINITION_REPRESENTATION(#21,#30);
#21=PRODUCT_DEFINITION_SHAPE('','',#22);
#22=PRODUCT_DEFINITION(' ','',#24,#23);
#23=PRODUCT_DEFINITION_CONTEXT('part definition',#29,'design');
#24=PRODUCT_DEFINITION_FORMATION_WITH_SPECIFIED_SOURCE(' ',' ',#26,
 .NOT_KNOWN.);
#25=PRODUCT_RELATED_PRODUCT_CATEGORY('part','',(#26));
#26=PRODUCT('wq7020448C39r0kt','wq7020448C39r0kt',' ',(#27));
#27=PRODUCT_CONTEXT(' ',#29,'mechanical');
#28=APPLICATION_PROTOCOL_DEFINITION('international standard',
'automotive_design',2010,#29);
#29=APPLICATION_CONTEXT(
'core data for automotive mechanical design processes');
#30=SHAPE_REPRESENTATION('wq7020448C39r0kt-None',(#338),#620);
#31=VERTEX_LOOP('',#288);
#32=(
BOUNDED_SURFACE()
B_SPLINE_SURFACE(3,3,((#582,#583,#584,#585,#586,#587,#588),(#589,#590,#591,
#592,#593,#594,#595),(#596,#597,#598,#599,#600,#601,#602),(#603,#604,#605,
#606,#607,#608,#609)),.UNSPECIFIED.,.F.,.T.,.F.)
B_SPLINE_SURFACE_WITH_KNOTS((4,4),(1,3,3,3,1),(0.,1.),(-0.5,0.,0.5,1.,1.5),
 .UNSPECIFIED.)
GEOMETRIC_REPRESENTATION_ITEM()
RATIONAL_B_SPLINE_SURFACE(((1.,0.333333333333333,0.333333333333333,1.,0.333333333333333,
0.333333333333333,1.),(0.995714570451058,0.331904856817019,0.331904856817019,
0.995714570451058,0.331904856817019,0.331904856817019,0.995714570451058),
(0.995714570451058,0.331904856817019,0.331904856817019,0.995714570451058,
0.331904856817019,0.331904856817019,0.995714570451058),(1.,0.333333333333333,
0.333333333333333,1.,0.333333333333333,0.333333333333333,1.)))
REPRESENTATION_ITEM('')
SURFACE()
);
#33=TOROIDAL_SURFACE('',#362,13.9185097660061,4.74852163499969);
#34=TOROIDAL_SURFACE('',#366,13.9185097660061,4.7485216349997);
#35=TOROIDAL_SURFACE('',#368,26.4355566124923,9.99999999999999);
#36=TOROIDAL_SURFACE('',#371,16.5,1.);
#37=TOROIDAL_SURFACE('',#372,25.5,10.);
#38=CONICAL_SURFACE('',#360,4.00000000000001,77.);
#39=CONICAL_SURFACE('',#370,16.4416483423014,2.);
#40=CONICAL_SURFACE('',#373,15.996,45.);
#41=CONICAL_SURFACE('',#375,4.,60.);
#42=CONICAL_SURFACE('',#378,5.1545,30.);
#43=FACE_OUTER_BOUND('',#191,.T.);
#44=PLANE('',#355);
#45=PLANE('',#357);
#46=PLANE('',#364);
#47=CYLINDRICAL_SURFACE('',#349,15.5);
#48=CYLINDRICAL_SURFACE('',#352,15.996);
#49=CYLINDRICAL_SURFACE('',#377,4.);
#50=PRESENTATION_LAYER_ASSIGNMENT('96','Layer 96',(#68));
#51=PRESENTATION_LAYER_ASSIGNMENT('14','Layer 14',(#69));
#52=STYLED_ITEM('',(#54),#68);
#53=STYLED_ITEM('',(#55),#69);
#54=PRESENTATION_STYLE_ASSIGNMENT((#56));
#55=PRESENTATION_STYLE_ASSIGNMENT((#57));
#56=SURFACE_STYLE_USAGE(.BOTH.,#58);
#57=SURFACE_STYLE_USAGE(.BOTH.,#59);
#58=SURFACE_SIDE_STYLE('',(#60));
#59=SURFACE_SIDE_STYLE('',(#61));
#60=SURFACE_STYLE_FILL_AREA(#62);
#61=SURFACE_STYLE_FILL_AREA(#63);
#62=FILL_AREA_STYLE('',(#64));
#63=FILL_AREA_STYLE('',(#65));
#64=FILL_AREA_STYLE_COLOUR('',#66);
#65=FILL_AREA_STYLE_COLOUR('',#67);
#66=COLOUR_RGB('Light Gray',0.8,0.8,0.8);
#67=COLOUR_RGB('Silver Gray',0.6,0.6,0.6);
#68=MANIFOLD_SOLID_BREP('',#70);
#69=MANIFOLD_SOLID_BREP('',#71);
#70=CLOSED_SHELL('',(#72,#73,#74,#75,#76,#77,#78,#79));
#71=CLOSED_SHELL('',(#80,#81,#82,#83,#84,#85,#86,#87,#88,#89,#90,#91,#92,
#93,#94,#95,#96));
#72=ADVANCED_FACE('',(#121,#122),#97,.T.);
#73=ADVANCED_FACE('',(#123,#124),#98,.T.);
#74=ADVANCED_FACE('',(#125,#126),#99,.T.);
#75=ADVANCED_FACE('',(#127,#128),#100,.T.);
#76=ADVANCED_FACE('',(#129,#130),#101,.T.);
#77=ADVANCED_FACE('',(#131,#132),#102,.T.);
#78=ADVANCED_FACE('',(#133,#134),#103,.T.);
#79=ADVANCED_FACE('',(#135,#136),#104,.T.);
#80=ADVANCED_FACE('',(#137,#138),#47,.T.);
#81=ADVANCED_FACE('',(#139,#140),#48,.T.);
#82=ADVANCED_FACE('',(#141,#142),#44,.T.);
#83=ADVANCED_FACE('',(#43),#45,.T.);
#84=ADVANCED_FACE('',(#143,#144),#38,.F.);
#85=ADVANCED_FACE('',(#145,#146),#33,.T.);
#86=ADVANCED_FACE('',(#147,#148),#46,.T.);
#87=ADVANCED_FACE('',(#149,#150),#34,.T.);
#88=ADVANCED_FACE('',(#151,#152),#35,.F.);
#89=ADVANCED_FACE('',(#153,#154),#39,.T.);
#90=ADVANCED_FACE('',(#155,#156),#36,.F.);
#91=ADVANCED_FACE('',(#157,#158),#37,.F.);
#92=ADVANCED_FACE('',(#159,#160),#32,.T.);
#93=ADVANCED_FACE('',(#161,#162),#40,.T.);
#94=ADVANCED_FACE('',(#163,#164),#41,.F.);
#95=ADVANCED_FACE('',(#165,#166),#49,.F.);
#96=ADVANCED_FACE('',(#167,#168),#42,.F.);
#97=SURFACE_OF_REVOLUTION('',#113,#105);
#98=SURFACE_OF_REVOLUTION('',#114,#106);
#99=SURFACE_OF_REVOLUTION('',#115,#107);
#100=SURFACE_OF_REVOLUTION('',#116,#108);
#101=SURFACE_OF_REVOLUTION('',#117,#109);
#102=SURFACE_OF_REVOLUTION('',#118,#110);
#103=SURFACE_OF_REVOLUTION('',#119,#111);
#104=SURFACE_OF_REVOLUTION('',#120,#112);
#105=AXIS1_PLACEMENT('',#480,#385);
#106=AXIS1_PLACEMENT('',#489,#388);
#107=AXIS1_PLACEMENT('',#498,#391);
#108=AXIS1_PLACEMENT('',#507,#394);
#109=AXIS1_PLACEMENT('',#516,#397);
#110=AXIS1_PLACEMENT('',#525,#400);
#111=AXIS1_PLACEMENT('',#534,#403);
#112=AXIS1_PLACEMENT('',#541,#404);
#113=B_SPLINE_CURVE_WITH_KNOTS('',5,(#474,#475,#476,#477,#478,#479),
 .UNSPECIFIED.,.F.,.F.,(6,6),(0.,1.),.UNSPECIFIED.);
#114=B_SPLINE_CURVE_WITH_KNOTS('',5,(#483,#484,#485,#486,#487,#488),
 .UNSPECIFIED.,.F.,.F.,(6,6),(0.,1.),.UNSPECIFIED.);
#115=B_SPLINE_CURVE_WITH_KNOTS('',5,(#492,#493,#494,#495,#496,#497),
 .UNSPECIFIED.,.F.,.F.,(6,6),(0.,1.),.UNSPECIFIED.);
#116=B_SPLINE_CURVE_WITH_KNOTS('',5,(#501,#502,#503,#504,#505,#506),
 .UNSPECIFIED.,.F.,.F.,(6,6),(0.,1.),.UNSPECIFIED.);
#117=B_SPLINE_CURVE_WITH_KNOTS('',5,(#510,#511,#512,#513,#514,#515),
 .UNSPECIFIED.,.F.,.F.,(6,6),(0.,1.),.UNSPECIFIED.);
#118=B_SPLINE_CURVE_WITH_KNOTS('',5,(#519,#520,#521,#522,#523,#524),
 .UNSPECIFIED.,.F.,.F.,(6,6),(0.,1.),.UNSPECIFIED.);
#119=B_SPLINE_CURVE_WITH_KNOTS('',5,(#528,#529,#530,#531,#532,#533),
 .UNSPECIFIED.,.F.,.F.,(6,6),(0.,1.),.UNSPECIFIED.);
#120=B_SPLINE_CURVE_WITH_KNOTS('',5,(#535,#536,#537,#538,#539,#540),
 .UNSPECIFIED.,.F.,.F.,(6,6),(0.,1.),.UNSPECIFIED.);
#121=FACE_BOUND('',#169,.T.);
#122=FACE_BOUND('',#170,.T.);
#123=FACE_BOUND('',#171,.T.);
#124=FACE_BOUND('',#172,.T.);
#125=FACE_BOUND('',#173,.T.);
#126=FACE_BOUND('',#174,.T.);
#127=FACE_BOUND('',#175,.T.);
#128=FACE_BOUND('',#176,.T.);
#129=FACE_BOUND('',#177,.T.);
#130=FACE_BOUND('',#178,.T.);
#131=FACE_BOUND('',#179,.T.);
#132=FACE_BOUND('',#180,.T.);
#133=FACE_BOUND('',#181,.T.);
#134=FACE_BOUND('',#182,.T.);
#135=FACE_BOUND('',#183,.T.);
#136=FACE_BOUND('',#184,.T.);
#137=FACE_BOUND('',#185,.T.);
#138=FACE_BOUND('',#186,.T.);
#139=FACE_BOUND('',#187,.T.);
#140=FACE_BOUND('',#188,.T.);
#141=FACE_BOUND('',#189,.T.);
#142=FACE_BOUND('',#190,.T.);
#143=FACE_BOUND('',#192,.T.);
#144=FACE_BOUND('',#193,.T.);
#145=FACE_BOUND('',#194,.T.);
#146=FACE_BOUND('',#195,.T.);
#147=FACE_BOUND('',#196,.T.);
#148=FACE_BOUND('',#197,.T.);
#149=FACE_BOUND('',#198,.T.);
#150=FACE_BOUND('',#199,.T.);
#151=FACE_BOUND('',#200,.T.);
#152=FACE_BOUND('',#201,.T.);
#153=FACE_BOUND('',#202,.T.);
#154=FACE_BOUND('',#203,.T.);
#155=FACE_BOUND('',#204,.T.);
#156=FACE_BOUND('',#205,.T.);
#157=FACE_BOUND('',#206,.T.);
#158=FACE_BOUND('',#207,.T.);
#159=FACE_BOUND('',#208,.T.);
#160=FACE_BOUND('',#209,.T.);
#161=FACE_BOUND('',#210,.T.);
#162=FACE_BOUND('',#211,.T.);
#163=FACE_BOUND('',#212,.T.);
#164=FACE_BOUND('',#31,.T.);
#165=FACE_BOUND('',#213,.T.);
#166=FACE_BOUND('',#214,.T.);
#167=FACE_BOUND('',#215,.T.);
#168=FACE_BOUND('',#216,.T.);
#169=EDGE_LOOP('',(#217));
#170=EDGE_LOOP('',(#218));
#171=EDGE_LOOP('',(#219));
#172=EDGE_LOOP('',(#220));
#173=EDGE_LOOP('',(#221));
#174=EDGE_LOOP('',(#222));
#175=EDGE_LOOP('',(#223));
#176=EDGE_LOOP('',(#224));
#177=EDGE_LOOP('',(#225));
#178=EDGE_LOOP('',(#226));
#179=EDGE_LOOP('',(#227));
#180=EDGE_LOOP('',(#228));
#181=EDGE_LOOP('',(#229));
#182=EDGE_LOOP('',(#230));
#183=EDGE_LOOP('',(#231));
#184=EDGE_LOOP('',(#232));
#185=EDGE_LOOP('',(#233));
#186=EDGE_LOOP('',(#234));
#187=EDGE_LOOP('',(#235));
#188=EDGE_LOOP('',(#236));
#189=EDGE_LOOP('',(#237));
#190=EDGE_LOOP('',(#238));
#191=EDGE_LOOP('',(#239));
#192=EDGE_LOOP('',(#240));
#193=EDGE_LOOP('',(#241));
#194=EDGE_LOOP('',(#242));
#195=EDGE_LOOP('',(#243));
#196=EDGE_LOOP('',(#244));
#197=EDGE_LOOP('',(#245));
#198=EDGE_LOOP('',(#246));
#199=EDGE_LOOP('',(#247));
#200=EDGE_LOOP('',(#248));
#201=EDGE_LOOP('',(#249));
#202=EDGE_LOOP('',(#250));
#203=EDGE_LOOP('',(#251));
#204=EDGE_LOOP('',(#252));
#205=EDGE_LOOP('',(#253));
#206=EDGE_LOOP('',(#254));
#207=EDGE_LOOP('',(#255));
#208=EDGE_LOOP('',(#256));
#209=EDGE_LOOP('',(#257));
#210=EDGE_LOOP('',(#258));
#211=EDGE_LOOP('',(#259));
#212=EDGE_LOOP('',(#260));
#213=EDGE_LOOP('',(#261));
#214=EDGE_LOOP('',(#262));
#215=EDGE_LOOP('',(#263));
#216=EDGE_LOOP('',(#264));
#217=ORIENTED_EDGE('',*,*,#290,.T.);
#218=ORIENTED_EDGE('',*,*,#291,.T.);
#219=ORIENTED_EDGE('',*,*,#292,.T.);
#220=ORIENTED_EDGE('',*,*,#290,.F.);
#221=ORIENTED_EDGE('',*,*,#293,.F.);
#222=ORIENTED_EDGE('',*,*,#292,.F.);
#223=ORIENTED_EDGE('',*,*,#294,.F.);
#224=ORIENTED_EDGE('',*,*,#293,.T.);
#225=ORIENTED_EDGE('',*,*,#295,.F.);
#226=ORIENTED_EDGE('',*,*,#294,.T.);
#227=ORIENTED_EDGE('',*,*,#296,.F.);
#228=ORIENTED_EDGE('',*,*,#295,.T.);
#229=ORIENTED_EDGE('',*,*,#297,.F.);
#230=ORIENTED_EDGE('',*,*,#296,.T.);
#231=ORIENTED_EDGE('',*,*,#291,.F.);
#232=ORIENTED_EDGE('',*,*,#297,.T.);
#233=ORIENTED_EDGE('',*,*,#298,.T.);
#234=ORIENTED_EDGE('',*,*,#299,.T.);
#235=ORIENTED_EDGE('',*,*,#300,.T.);
#236=ORIENTED_EDGE('',*,*,#301,.F.);
#237=ORIENTED_EDGE('',*,*,#302,.T.);
#238=ORIENTED_EDGE('',*,*,#303,.T.);
#239=ORIENTED_EDGE('',*,*,#304,.T.);
#240=ORIENTED_EDGE('',*,*,#305,.T.);
#241=ORIENTED_EDGE('',*,*,#306,.T.);
#242=ORIENTED_EDGE('',*,*,#307,.T.);
#243=ORIENTED_EDGE('',*,*,#306,.F.);
#244=ORIENTED_EDGE('',*,*,#308,.T.);
#245=ORIENTED_EDGE('',*,*,#307,.F.);
#246=ORIENTED_EDGE('',*,*,#309,.T.);
#247=ORIENTED_EDGE('',*,*,#308,.F.);
#248=ORIENTED_EDGE('',*,*,#310,.T.);
#249=ORIENTED_EDGE('',*,*,#309,.F.);
#250=ORIENTED_EDGE('',*,*,#311,.T.);
#251=ORIENTED_EDGE('',*,*,#310,.F.);
#252=ORIENTED_EDGE('',*,*,#301,.T.);
#253=ORIENTED_EDGE('',*,*,#298,.F.);
#254=ORIENTED_EDGE('',*,*,#299,.F.);
#255=ORIENTED_EDGE('',*,*,#311,.F.);
#256=ORIENTED_EDGE('',*,*,#305,.F.);
#257=ORIENTED_EDGE('',*,*,#304,.F.);
#258=ORIENTED_EDGE('',*,*,#303,.F.);
#259=ORIENTED_EDGE('',*,*,#300,.F.);
#260=ORIENTED_EDGE('',*,*,#312,.T.);
#261=ORIENTED_EDGE('',*,*,#312,.F.);
#262=ORIENTED_EDGE('',*,*,#313,.T.);
#263=ORIENTED_EDGE('',*,*,#313,.F.);
#264=ORIENTED_EDGE('',*,*,#302,.F.);
#265=VERTEX_POINT('',#471);
#266=VERTEX_POINT('',#473);
#267=VERTEX_POINT('',#482);
#268=VERTEX_POINT('',#491);
#269=VERTEX_POINT('',#500);
#270=VERTEX_POINT('',#509);
#271=VERTEX_POINT('',#518);
#272=VERTEX_POINT('',#527);
#273=VERTEX_POINT('',#543);
#274=VERTEX_POINT('',#545);
#275=VERTEX_POINT('',#548);
#276=VERTEX_POINT('',#550);
#277=VERTEX_POINT('',#553);
#278=VERTEX_POINT('',#555);
#279=VERTEX_POINT('',#558);
#280=VERTEX_POINT('',#561);
#281=VERTEX_POINT('',#563);
#282=VERTEX_POINT('',#566);
#283=VERTEX_POINT('',#569);
#284=VERTEX_POINT('',#572);
#285=VERTEX_POINT('',#575);
#286=VERTEX_POINT('',#578);
#287=VERTEX_POINT('',#612);
#288=VERTEX_POINT('',#613);
#289=VERTEX_POINT('',#616);
#290=EDGE_CURVE('',#265,#265,#314,.T.);
#291=EDGE_CURVE('',#266,#266,#315,.T.);
#292=EDGE_CURVE('',#267,#267,#316,.T.);
#293=EDGE_CURVE('',#268,#268,#317,.T.);
#294=EDGE_CURVE('',#269,#269,#318,.T.);
#295=EDGE_CURVE('',#270,#270,#319,.T.);
#296=EDGE_CURVE('',#271,#271,#320,.T.);
#297=EDGE_CURVE('',#272,#272,#321,.T.);
#298=EDGE_CURVE('',#273,#273,#322,.T.);
#299=EDGE_CURVE('',#274,#274,#323,.T.);
#300=EDGE_CURVE('',#275,#275,#324,.T.);
#301=EDGE_CURVE('',#276,#276,#325,.T.);
#302=EDGE_CURVE('',#277,#277,#326,.T.);
#303=EDGE_CURVE('',#278,#278,#327,.T.);
#304=EDGE_CURVE('',#279,#279,#328,.T.);
#305=EDGE_CURVE('',#280,#280,#329,.T.);
#306=EDGE_CURVE('',#281,#281,#330,.T.);
#307=EDGE_CURVE('',#282,#282,#331,.T.);
#308=EDGE_CURVE('',#283,#283,#332,.T.);
#309=EDGE_CURVE('',#284,#284,#333,.T.);
#310=EDGE_CURVE('',#285,#285,#334,.T.);
#311=EDGE_CURVE('',#286,#286,#335,.T.);
#312=EDGE_CURVE('',#287,#287,#336,.T.);
#313=EDGE_CURVE('',#289,#289,#337,.T.);
#314=CIRCLE('',#339,16.3238554720554);
#315=CIRCLE('',#340,19.9780750861621);
#316=CIRCLE('',#341,11.1489371387032);
#317=CIRCLE('',#342,7.43577357040909);
#318=CIRCLE('',#343,7.31661987727086);
#319=CIRCLE('',#344,10.9845532927352);
#320=CIRCLE('',#345,16.2384088850665);
#321=CIRCLE('',#346,19.9554938779846);
#322=CIRCLE('',#347,15.5);
#323=CIRCLE('',#348,15.5);
#324=CIRCLE('',#350,15.996);
#325=CIRCLE('',#351,15.996);
#326=CIRCLE('',#353,5.1545);
#327=CIRCLE('',#354,14.996);
#328=CIRCLE('',#356,3.43032195849175);
#329=CIRCLE('',#358,4.55507723021107);
#330=CIRCLE('',#359,12.8503248176382);
#331=CIRCLE('',#361,13.1357363622712);
#332=CIRCLE('',#363,14.7012831697409);
#333=CIRCLE('',#365,17.9485725226551);
#334=CIRCLE('',#367,16.4416483423014);
#335=CIRCLE('',#369,15.506091729809);
#336=CIRCLE('',#374,4.);
#337=CIRCLE('',#376,4.);
#338=AXIS2_PLACEMENT_3D('',#469,#379,#380);
#339=AXIS2_PLACEMENT_3D('',#470,#381,#382);
#340=AXIS2_PLACEMENT_3D('',#472,#383,#384);
#341=AXIS2_PLACEMENT_3D('',#481,#386,#387);
#342=AXIS2_PLACEMENT_3D('',#490,#389,#390);
#343=AXIS2_PLACEMENT_3D('',#499,#392,#393);
#344=AXIS2_PLACEMENT_3D('',#508,#395,#396);
#345=AXIS2_PLACEMENT_3D('',#517,#398,#399);
#346=AXIS2_PLACEMENT_3D('',#526,#401,#402);
#347=AXIS2_PLACEMENT_3D('',#542,#405,#406);
#348=AXIS2_PLACEMENT_3D('',#544,#407,#408);
#349=AXIS2_PLACEMENT_3D('',#546,#409,#410);
#350=AXIS2_PLACEMENT_3D('',#547,#411,#412);
#351=AXIS2_PLACEMENT_3D('',#549,#413,#414);
#352=AXIS2_PLACEMENT_3D('',#551,#415,#416);
#353=AXIS2_PLACEMENT_3D('',#552,#417,#418);
#354=AXIS2_PLACEMENT_3D('',#554,#419,#420);
#355=AXIS2_PLACEMENT_3D('',#556,#421,#422);
#356=AXIS2_PLACEMENT_3D('',#557,#423,#424);
#357=AXIS2_PLACEMENT_3D('',#559,#425,#426);
#358=AXIS2_PLACEMENT_3D('',#560,#427,#428);
#359=AXIS2_PLACEMENT_3D('',#562,#429,#430);
#360=AXIS2_PLACEMENT_3D('',#564,#431,#432);
#361=AXIS2_PLACEMENT_3D('',#565,#433,#434);
#362=AXIS2_PLACEMENT_3D('',#567,#435,#436);
#363=AXIS2_PLACEMENT_3D('',#568,#437,#438);
#364=AXIS2_PLACEMENT_3D('',#570,#439,#440);
#365=AXIS2_PLACEMENT_3D('',#571,#441,#442);
#366=AXIS2_PLACEMENT_3D('',#573,#443,#444);
#367=AXIS2_PLACEMENT_3D('',#574,#445,#446);
#368=AXIS2_PLACEMENT_3D('',#576,#447,#448);
#369=AXIS2_PLACEMENT_3D('',#577,#449,#450);
#370=AXIS2_PLACEMENT_3D('',#579,#451,#452);
#371=AXIS2_PLACEMENT_3D('',#580,#453,#454);
#372=AXIS2_PLACEMENT_3D('',#581,#455,#456);
#373=AXIS2_PLACEMENT_3D('',#610,#457,#458);
#374=AXIS2_PLACEMENT_3D('',#611,#459,#460);
#375=AXIS2_PLACEMENT_3D('',#614,#461,#462);
#376=AXIS2_PLACEMENT_3D('',#615,#463,#464);
#377=AXIS2_PLACEMENT_3D('',#617,#465,#466);
#378=AXIS2_PLACEMENT_3D('',#618,#467,#468);
#379=DIRECTION('',(0.,0.,1.));
#380=DIRECTION('',(1.,0.,0.));
#381=DIRECTION('',(0.,0.,1.));
#382=DIRECTION('',(-1.,0.,0.));
#383=DIRECTION('',(0.,0.,-1.));
#384=DIRECTION('',(-1.,0.,0.));
#385=DIRECTION('',(0.,0.,-1.));
#386=DIRECTION('',(0.,0.,1.));
#387=DIRECTION('',(-1.,0.,0.));
#388=DIRECTION('',(0.,0.,-1.));
#389=DIRECTION('',(0.,0.,-1.));
#390=DIRECTION('',(-1.,0.,0.));
#391=DIRECTION('',(0.,0.,-1.));
#392=DIRECTION('',(0.,0.,-1.));
#393=DIRECTION('',(-1.,0.,0.));
#394=DIRECTION('',(0.,0.,-1.));
#395=DIRECTION('',(0.,0.,-1.));
#396=DIRECTION('',(-1.,0.,0.));
#397=DIRECTION('',(0.,0.,-1.));
#398=DIRECTION('',(0.,0.,-1.));
#399=DIRECTION('',(-1.,0.,0.));
#400=DIRECTION('',(0.,0.,-1.));
#401=DIRECTION('',(0.,0.,-1.));
#402=DIRECTION('',(-1.,0.,0.));
#403=DIRECTION('',(0.,0.,-1.));
#404=DIRECTION('',(0.,0.,-1.));
#405=DIRECTION('',(0.,0.,-1.));
#406=DIRECTION('',(1.,0.,0.));
#407=DIRECTION('',(0.,0.,1.));
#408=DIRECTION('',(-1.,0.,0.));
#409=DIRECTION('',(0.,0.,-1.));
#410=DIRECTION('',(-1.,0.,0.));
#411=DIRECTION('',(0.,0.,-1.));
#412=DIRECTION('',(1.,0.,0.));
#413=DIRECTION('',(0.,0.,-1.));
#414=DIRECTION('',(-1.,0.,0.));
#415=DIRECTION('',(0.,0.,-1.));
#416=DIRECTION('',(-1.,0.,0.));
#417=DIRECTION('',(0.,0.,-1.));
#418=DIRECTION('',(-1.,0.,0.));
#419=DIRECTION('',(0.,0.,1.));
#420=DIRECTION('',(1.,0.,0.));
#421=DIRECTION('',(0.,0.,1.));
#422=DIRECTION('',(1.,0.,0.));
#423=DIRECTION('',(0.,0.,-1.));
#424=DIRECTION('',(-1.,0.,0.));
#425=DIRECTION('',(0.,0.,-1.));
#426=DIRECTION('',(-1.,0.,0.));
#427=DIRECTION('',(0.,0.,1.));
#428=DIRECTION('',(-1.,0.,0.));
#429=DIRECTION('',(0.,0.,-1.));
#430=DIRECTION('',(-1.,0.,0.));
#431=DIRECTION('',(0.,0.,-1.));
#432=DIRECTION('',(-1.,0.,-8.00245936676203E-18));
#433=DIRECTION('',(0.,0.,-1.));
#434=DIRECTION('',(-1.,0.,0.));
#435=DIRECTION('',(0.,0.,-1.));
#436=DIRECTION('',(-1.,0.,0.));
#437=DIRECTION('',(0.,0.,-1.));
#438=DIRECTION('',(-1.,0.,0.));
#439=DIRECTION('',(0.,0.,-1.));
#440=DIRECTION('',(-1.,0.,0.));
#441=DIRECTION('',(0.,0.,-1.));
#442=DIRECTION('',(-1.,0.,0.));
#443=DIRECTION('',(0.,0.,-1.));
#444=DIRECTION('',(-1.,0.,0.));
#445=DIRECTION('',(0.,0.,-1.));
#446=DIRECTION('',(-1.,0.,0.));
#447=DIRECTION('',(0.,0.,-1.));
#448=DIRECTION('',(-1.,0.,0.));
#449=DIRECTION('',(0.,0.,-1.));
#450=DIRECTION('',(-1.,0.,0.));
#451=DIRECTION('',(0.,0.,-1.));
#452=DIRECTION('',(-1.,0.,-4.05290143835906E-16));
#453=DIRECTION('',(0.,0.,1.));
#454=DIRECTION('',(1.,0.,0.));
#455=DIRECTION('',(0.,0.,-1.));
#456=DIRECTION('',(-1.,0.,0.));
#457=DIRECTION('',(0.,0.,-1.));
#458=DIRECTION('',(-1.,0.,-1.36592937450683E-17));
#459=DIRECTION('',(0.,0.,1.));
#460=DIRECTION('',(-1.,0.,0.));
#461=DIRECTION('',(0.,0.,1.));
#462=DIRECTION('',(1.,0.,-7.99388344356613E-18));
#463=DIRECTION('',(0.,0.,1.));
#464=DIRECTION('',(-1.,0.,0.));
#465=DIRECTION('',(0.,0.,-1.));
#466=DIRECTION('',(-1.,0.,0.));
#467=DIRECTION('',(0.,0.,1.));
#468=DIRECTION('',(1.,0.,-2.38243333648943E-17));
#469=CARTESIAN_POINT('',(0.,0.,0.));
#470=CARTESIAN_POINT('',(0.,0.,-45.0759378303382));
#471=CARTESIAN_POINT('',(-16.3238554720554,0.,-45.0759378303382));
#472=CARTESIAN_POINT('',(0.,0.,-41.4160056995864));
#473=CARTESIAN_POINT('',(-19.9780750861621,0.,-41.4160056995864));
#474=CARTESIAN_POINT('',(19.9780750861621,0.,-41.4160056995864));
#475=CARTESIAN_POINT('',(19.2449225438559,6.73716605238538E-32,-42.1456838386475));
#476=CARTESIAN_POINT('',(18.5127042061665,1.4793707605221E-30,-42.8763007666586));
#477=CARTESIAN_POINT('',(17.7816009378791,-1.38192899837972E-30,-43.6080333745139));
#478=CARTESIAN_POINT('',(17.051847357742,-2.27151645367339E-31,-44.3411131620607));
#479=CARTESIAN_POINT('',(16.3238554720554,0.,-45.0759378303382));
#480=CARTESIAN_POINT('',(0.,0.,0.));
#481=CARTESIAN_POINT('',(0.,0.,-45.0419078718092));
#482=CARTESIAN_POINT('',(-11.1489371387032,0.,-45.0419078718092));
#483=CARTESIAN_POINT('',(16.3238554720554,6.23416249179165E-16,-45.0759378303382));
#484=CARTESIAN_POINT('',(15.2888715704566,6.23416249179165E-16,-45.0691675839595));
#485=CARTESIAN_POINT('',(14.2538877476796,6.23416249179165E-16,-45.0623852735142));
#486=CARTESIAN_POINT('',(13.21890403311,-3.90312782094782E-15,-45.0555865254381));
#487=CARTESIAN_POINT('',(12.1839204553666,-3.90312782094782E-15,-45.0487668866912));
#488=CARTESIAN_POINT('',(11.1489371387032,-3.90312782094782E-15,-45.0419078718092));
#489=CARTESIAN_POINT('',(0.,0.,0.));
#490=CARTESIAN_POINT('',(0.,0.,-41.3338501121788));
#491=CARTESIAN_POINT('',(-7.43577357040909,0.,-41.3338501121788));
#492=CARTESIAN_POINT('',(11.1489371387032,3.36102673470506E-15,-45.0419078718092));
#493=CARTESIAN_POINT('',(10.4056971755196,3.36102673470506E-15,-44.3009045077709));
#494=CARTESIAN_POINT('',(9.6626591092974,3.36102673470506E-15,-43.5596985539541));
#495=CARTESIAN_POINT('',(8.91989936429827,9.41037861336121E-31,-42.8182140093965));
#496=CARTESIAN_POINT('',(8.17749329729114,1.73132529331422E-31,-42.0763748037352));
#497=CARTESIAN_POINT('',(7.43577357040909,0.,-41.3338501121788));
#498=CARTESIAN_POINT('',(0.,0.,0.));
#499=CARTESIAN_POINT('',(0.,0.,-36.1238944969756));
#500=CARTESIAN_POINT('',(-7.31661987727086,0.,-36.1238944969756));
#501=CARTESIAN_POINT('',(7.4357735704091,0.,-41.3338501121788));
#502=CARTESIAN_POINT('',(7.40501990001317,-7.45338085043111E-31,-40.2920322951906));
#503=CARTESIAN_POINT('',(7.37766258736595,-4.09629118649871E-31,-39.2501142914552));
#504=CARTESIAN_POINT('',(7.3537736373997,2.81892564846231E-15,-38.2081087747031));
#505=CARTESIAN_POINT('',(7.33341207535879,2.81892564846231E-15,-37.1660303922127));
#506=CARTESIAN_POINT('',(7.31661987727086,2.81892564846231E-15,-36.1238944969756));
#507=CARTESIAN_POINT('',(0.,0.,0.));
#508=CARTESIAN_POINT('',(0.,0.,-32.4639623662239));
#509=CARTESIAN_POINT('',(-10.9845532927352,0.,-32.4639623662239));
#510=CARTESIAN_POINT('',(7.31661987727086,1.05709711817337E-15,-36.1238944969756));
#511=CARTESIAN_POINT('',(8.04452156814061,1.05709711817337E-15,-35.3862543359819));
#512=CARTESIAN_POINT('',(8.77676466407126,1.05709711817337E-15,-34.6528938516791));
#513=CARTESIAN_POINT('',(9.511151553445,-1.08420217248551E-16,-33.921702458064));
#514=CARTESIAN_POINT('',(10.2472441675867,-1.08420217248551E-16,-33.1922148587442));
#515=CARTESIAN_POINT('',(10.9845532927352,-1.0842021724855E-16,-32.4639623662239));
#516=CARTESIAN_POINT('',(0.,0.,0.));
#517=CARTESIAN_POINT('',(0.,0.,-32.4979923247528));
#518=CARTESIAN_POINT('',(-16.2384088850665,0.,-32.4979923247528));
#519=CARTESIAN_POINT('',(10.9845532927352,0.,-32.4639623662239));
#520=CARTESIAN_POINT('',(12.03532438489,2.76938075288853E-32,-32.4707724189466));
#521=CARTESIAN_POINT('',(13.086095496521,2.57727040523835E-32,-32.4775794666858));
#522=CARTESIAN_POINT('',(14.1368666185883,2.16840434497101E-16,-32.4843849026647));
#523=CARTESIAN_POINT('',(15.1876377488255,2.16840434497101E-16,-32.4911890773972));
#524=CARTESIAN_POINT('',(16.2384088850665,2.16840434497101E-16,-32.4979923247528));
#525=CARTESIAN_POINT('',(0.,0.,0.));
#526=CARTESIAN_POINT('',(0.,0.,-36.2060500843833));
#527=CARTESIAN_POINT('',(-19.9554938779846,0.,-36.2060500843833));
#528=CARTESIAN_POINT('',(16.2384088850665,0.,-32.4979923247528));
#529=CARTESIAN_POINT('',(16.9814983160147,2.58250327875149E-33,-33.2399321200065));
#530=CARTESIAN_POINT('',(17.724789238209,8.64383831643681E-33,-33.9816701174618));
#531=CARTESIAN_POINT('',(18.468235564234,1.6615348764523E-32,-34.7232523380501));
#532=CARTESIAN_POINT('',(19.2118106126221,8.12035091214671E-33,-35.4647054912665));
#533=CARTESIAN_POINT('',(19.9554938779846,0.,-36.2060500843833));
#534=CARTESIAN_POINT('',(0.,0.,0.));
#535=CARTESIAN_POINT('',(19.9554938779846,-1.0842021724855E-16,-36.2060500843833));
#536=CARTESIAN_POINT('',(19.9573600307338,-1.08420217248551E-16,-37.2480504435266));
#537=CARTESIAN_POINT('',(19.9605523149328,-1.08420217248551E-16,-38.2900484272224));
#538=CARTESIAN_POINT('',(19.9650700947073,1.4928723320012E-32,-39.3320417905531));
#539=CARTESIAN_POINT('',(19.970911828767,3.57826758869999E-33,-40.3740282870162));
#540=CARTESIAN_POINT('',(19.9780750861621,0.,-41.4160056995864));
#541=CARTESIAN_POINT('',(0.,0.,0.));
#542=CARTESIAN_POINT('',(0.,0.,-0.863703652881011));
#543=CARTESIAN_POINT('',(15.5,0.,-0.863703652881011));
#544=CARTESIAN_POINT('',(0.,0.,-4.82544935071787));
#545=CARTESIAN_POINT('',(-15.5,0.,-4.82544935071787));
#546=CARTESIAN_POINT('',(0.,0.,0.));
#547=CARTESIAN_POINT('',(0.,0.,104.));
#548=CARTESIAN_POINT('',(15.996,0.,104.));
#549=CARTESIAN_POINT('',(0.,0.,0.));
#550=CARTESIAN_POINT('',(-15.996,0.,0.));
#551=CARTESIAN_POINT('',(0.,0.,0.));
#552=CARTESIAN_POINT('',(0.,0.,105.));
#553=CARTESIAN_POINT('',(-5.1545,0.,105.));
#554=CARTESIAN_POINT('',(0.,0.,105.));
#555=CARTESIAN_POINT('',(14.996,0.,105.));
#556=CARTESIAN_POINT('',(15.996,0.,105.));
#557=CARTESIAN_POINT('',(0.,0.,-42.));
#558=CARTESIAN_POINT('',(-3.43032195849175,0.,-42.));
#559=CARTESIAN_POINT('',(5.32907051820075E-15,0.,-42.));
#560=CARTESIAN_POINT('',(0.,0.,-42.1281496760738));
#561=CARTESIAN_POINT('',(-4.55507723021107,0.,-42.1281496760738));
#562=CARTESIAN_POINT('',(0.,0.,-44.0432584815218));
#563=CARTESIAN_POINT('',(-12.8503248176382,0.,-44.0432584815218));
#564=CARTESIAN_POINT('',(0.,0.,-42.));
#565=CARTESIAN_POINT('',(0.,0.,-44.1));
#566=CARTESIAN_POINT('',(-13.1357363622712,0.,-44.1));
#567=CARTESIAN_POINT('',(0.,0.,-39.4164411483931));
#568=CARTESIAN_POINT('',(0.,0.,-44.1));
#569=CARTESIAN_POINT('',(-14.7012831697409,0.,-44.1));
#570=CARTESIAN_POINT('',(13.1357363622712,0.,-44.1));
#571=CARTESIAN_POINT('',(0.,0.,-36.9050566904634));
#572=CARTESIAN_POINT('',(-17.9485725226551,0.,-36.9050566904634));
#573=CARTESIAN_POINT('',(0.,0.,-39.4164411483931));
#574=CARTESIAN_POINT('',(0.,0.,-31.9652804335792));
#575=CARTESIAN_POINT('',(-16.4416483423014,0.,-31.9652804335792));
#576=CARTESIAN_POINT('',(0.,0.,-31.6162854665542));
#577=CARTESIAN_POINT('',(0.,0.,-5.17444431774288));
#578=CARTESIAN_POINT('',(-15.506091729809,0.,-5.17444431774288));
#579=CARTESIAN_POINT('',(0.,0.,-31.9652804335792));
#580=CARTESIAN_POINT('',(0.,0.,-0.863703652881011));
#581=CARTESIAN_POINT('',(0.,0.,-4.82544935071787));
#582=CARTESIAN_POINT('',(-3.43032195849175,0.,-42.));
#583=CARTESIAN_POINT('',(-3.43032195849175,6.8606439169835,-42.));
#584=CARTESIAN_POINT('',(3.43032195849175,6.8606439169835,-42.));
#585=CARTESIAN_POINT('',(3.43032195849175,0.,-42.));
#586=CARTESIAN_POINT('',(3.43032195849175,-6.8606439169835,-42.));
#587=CARTESIAN_POINT('',(-3.43032195849175,-6.8606439169835,-42.));
#588=CARTESIAN_POINT('',(-3.43032195849175,0.,-42.));
#589=CARTESIAN_POINT('',(-3.80929004542261,0.,-42.));
#590=CARTESIAN_POINT('',(-3.80929004542261,7.61858009084522,-42.));
#591=CARTESIAN_POINT('',(3.80929004542261,7.61858009084522,-42.));
#592=CARTESIAN_POINT('',(3.80929004542261,0.,-42.));
#593=CARTESIAN_POINT('',(3.80929004542261,-7.61858009084522,-42.));
#594=CARTESIAN_POINT('',(-3.80929004542261,-7.61858009084522,-42.));
#595=CARTESIAN_POINT('',(-3.80929004542261,0.,-42.));
#596=CARTESIAN_POINT('',(-4.18582207079671,0.,-42.042900405356));
#597=CARTESIAN_POINT('',(-4.18582207079671,8.37164414159342,-42.042900405356));
#598=CARTESIAN_POINT('',(4.18582207079671,8.37164414159342,-42.042900405356));
#599=CARTESIAN_POINT('',(4.18582207079671,0.,-42.042900405356));
#600=CARTESIAN_POINT('',(4.18582207079671,-8.37164414159342,-42.042900405356));
#601=CARTESIAN_POINT('',(-4.18582207079671,-8.37164414159342,-42.042900405356));
#602=CARTESIAN_POINT('',(-4.18582207079671,0.,-42.042900405356));
#603=CARTESIAN_POINT('',(-4.55507723021107,0.,-42.1281496760738));
#604=CARTESIAN_POINT('',(-4.55507723021107,9.11015446042214,-42.1281496760738));
#605=CARTESIAN_POINT('',(4.55507723021107,9.11015446042214,-42.1281496760738));
#606=CARTESIAN_POINT('',(4.55507723021107,0.,-42.1281496760738));
#607=CARTESIAN_POINT('',(4.55507723021107,-9.11015446042214,-42.1281496760738));
#608=CARTESIAN_POINT('',(-4.55507723021107,-9.11015446042214,-42.1281496760738));
#609=CARTESIAN_POINT('',(-4.55507723021107,0.,-42.1281496760738));
#610=CARTESIAN_POINT('',(0.,0.,104.));
#611=CARTESIAN_POINT('',(0.,0.,-15.));
#612=CARTESIAN_POINT('',(-4.,0.,-15.));
#613=CARTESIAN_POINT('',(0.,0.,-17.3094010767585));
#614=CARTESIAN_POINT('',(0.,0.,-15.));
#615=CARTESIAN_POINT('',(0.,0.,103.000347342662));
#616=CARTESIAN_POINT('',(-4.,0.,103.000347342662));
#617=CARTESIAN_POINT('',(0.,0.,-15.));
#618=CARTESIAN_POINT('',(0.,0.,105.));
#619=MECHANICAL_DESIGN_GEOMETRIC_PRESENTATION_REPRESENTATION('',(#52,#53),
#620);
#620=(
GEOMETRIC_REPRESENTATION_CONTEXT(3)
GLOBAL_UNCERTAINTY_ASSIGNED_CONTEXT((#621))
GLOBAL_UNIT_ASSIGNED_CONTEXT((#627,#623,#622))
REPRESENTATION_CONTEXT('40N3R045A32_SOD05_C_115009861ndi000_00_SIM',
'TOP_LEVEL_ASSEMBLY_PART')
);
#621=UNCERTAINTY_MEASURE_WITH_UNIT(LENGTH_MEASURE(0.0254),#627,
'DISTANCE_ACCURACY_VALUE','Maximum Tolerance applied to model');
#622=(
NAMED_UNIT(*)
SI_UNIT($,.STERADIAN.)
SOLID_ANGLE_UNIT()
);
#623=(
CONVERSION_BASED_UNIT('DEGREE',#625)
NAMED_UNIT(#624)
PLANE_ANGLE_UNIT()
);
#624=DIMENSIONAL_EXPONENTS(0.,0.,0.,0.,0.,0.,0.);
#625=PLANE_ANGLE_MEASURE_WITH_UNIT(PLANE_ANGLE_MEASURE(0.0174532925),#626);
#626=(
NAMED_UNIT(*)
PLANE_ANGLE_UNIT()
SI_UNIT($,.RADIAN.)
);
#627=(
LENGTH_UNIT()
NAMED_UNIT(*)
SI_UNIT(.MILLI.,.METRE.)
);
ENDSEC;
END-ISO-10303-21;
