ISO-10303-21;
HEADER;
/* Generated by software containing ST-Developer
 * from STEP Tools, Inc. (www.steptools.com) 
 */
/* OPTION: using custom schema-name function */

FILE_DESCRIPTION(
/* description */ (''),
/* implementation_level */ '2;1');

FILE_NAME(
/* name */ '40A3R045A32-SVC22C-SIM.stp',
/* time_stamp */ '2020-02-06T13:11:55+01:00',
/* author */ (''),
/* organization */ (''),
/* preprocessor_version */ 'ST-DEVELOPER v16.7',
/* originating_system */ 'SIEMENS PLM Software NX 12.0',
/* authorisation */ '');

FILE_SCHEMA (('AUTOMOTIVE_DESIGN { 1 0 10303 214 3 1 1 1 }'));
ENDSEC;

DATA;
#10=PROPERTY_DEFINITION_REPRESENTATION(#14,#12);
#11=PROPERTY_DEFINITION_REPRESENTATION(#15,#13);
#12=REPRESENTATION('',(#16),#485);
#13=REPRESENTATION('',(#17),#485);
#14=PROPERTY_DEFINITION('pmi validation property','',#21);
#15=PROPERTY_DEFINITION('pmi validation property','',#21);
#16=VALUE_REPRESENTATION_ITEM('number of annotations',COUNT_MEASURE(0.));
#17=VALUE_REPRESENTATION_ITEM('number of views',COUNT_MEASURE(0.));
#18=SHAPE_REPRESENTATION_RELATIONSHIP('None',
'relationship between hm1528D44D159sl4-None and hm1528D44D159sl4-None',
#30,#19);
#19=ADVANCED_BREP_SHAPE_REPRESENTATION('hm1528D44D159sl4-None',(#67,#68),
#485);
#20=SHAPE_DEFINITION_REPRESENTATION(#21,#30);
#21=PRODUCT_DEFINITION_SHAPE('','',#22);
#22=PRODUCT_DEFINITION(' ','',#24,#23);
#23=PRODUCT_DEFINITION_CONTEXT('part definition',#29,'design');
#24=PRODUCT_DEFINITION_FORMATION_WITH_SPECIFIED_SOURCE(' ',' ',#26,
 .NOT_KNOWN.);
#25=PRODUCT_RELATED_PRODUCT_CATEGORY('part','',(#26));
#26=PRODUCT('hm1528D44D159sl4','hm1528D44D159sl4',' ',(#27));
#27=PRODUCT_CONTEXT(' ',#29,'mechanical');
#28=APPLICATION_PROTOCOL_DEFINITION('international standard',
'automotive_design',2010,#29);
#29=APPLICATION_CONTEXT(
'core data for automotive mechanical design processes');
#30=SHAPE_REPRESENTATION('hm1528D44D159sl4-None',(#288),#485);
#31=VERTEX_LOOP('',#242);
#32=VERTEX_LOOP('',#245);
#33=CONICAL_SURFACE('',#307,9.71396950019215,33.5);
#34=CONICAL_SURFACE('',#316,15.8,15.);
#35=CONICAL_SURFACE('',#319,14.5,45.);
#36=CONICAL_SURFACE('',#321,1.,59.);
#37=CONICAL_SURFACE('',#324,2.125,30.);
#38=CONICAL_SURFACE('',#326,3.,59.);
#39=CONICAL_SURFACE('',#329,4.15,30.);
#40=TOROIDAL_SURFACE('',#305,17.3,1.8);
#41=TOROIDAL_SURFACE('',#312,19.8,4.);
#42=TOROIDAL_SURFACE('',#317,19.8,4.);
#43=TOROIDAL_SURFACE('',#318,6.49005320735572,6.);
#44=CYLINDRICAL_SURFACE('',#300,16.);
#45=CYLINDRICAL_SURFACE('',#303,19.1);
#46=CYLINDRICAL_SURFACE('',#314,15.8);
#47=CYLINDRICAL_SURFACE('',#323,1.);
#48=CYLINDRICAL_SURFACE('',#328,3.);
#49=PRESENTATION_LAYER_ASSIGNMENT('96','Layer 96',(#67));
#50=PRESENTATION_LAYER_ASSIGNMENT('14','Layer 14',(#68));
#51=STYLED_ITEM('',(#53),#67);
#52=STYLED_ITEM('',(#54),#68);
#53=PRESENTATION_STYLE_ASSIGNMENT((#55));
#54=PRESENTATION_STYLE_ASSIGNMENT((#56));
#55=SURFACE_STYLE_USAGE(.BOTH.,#57);
#56=SURFACE_STYLE_USAGE(.BOTH.,#58);
#57=SURFACE_SIDE_STYLE('',(#59));
#58=SURFACE_SIDE_STYLE('',(#60));
#59=SURFACE_STYLE_FILL_AREA(#61);
#60=SURFACE_STYLE_FILL_AREA(#62);
#61=FILL_AREA_STYLE('',(#63));
#62=FILL_AREA_STYLE('',(#64));
#63=FILL_AREA_STYLE_COLOUR('',#65);
#64=FILL_AREA_STYLE_COLOUR('',#66);
#65=COLOUR_RGB('Light Gray',0.8,0.8,0.8);
#66=COLOUR_RGB('Medium Gray',0.499992370489052,0.499992370489052,0.499992370489052);
#67=MANIFOLD_SOLID_BREP('',#69);
#68=MANIFOLD_SOLID_BREP('',#70);
#69=CLOSED_SHELL('',(#117,#118,#119,#120));
#70=CLOSED_SHELL('',(#121,#122,#123,#124,#125,#126,#127,#128,#129,#130,
#131,#132,#133,#134,#135,#136,#137,#138));
#71=SURFACE_OF_REVOLUTION('',#75,#73);
#72=SURFACE_OF_REVOLUTION('',#270,#74);
#73=AXIS1_PLACEMENT('',#427,#343);
#74=AXIS1_PLACEMENT('',#429,#346);
#75=LINE('',#426,#76);
#76=VECTOR('',#342,12.6269898972983);
#77=FACE_BOUND('',#147,.T.);
#78=FACE_BOUND('',#148,.T.);
#79=FACE_BOUND('',#149,.T.);
#80=FACE_BOUND('',#150,.T.);
#81=FACE_BOUND('',#151,.T.);
#82=FACE_BOUND('',#152,.T.);
#83=FACE_BOUND('',#153,.T.);
#84=FACE_BOUND('',#154,.T.);
#85=FACE_BOUND('',#155,.T.);
#86=FACE_BOUND('',#156,.T.);
#87=FACE_BOUND('',#157,.T.);
#88=FACE_BOUND('',#158,.T.);
#89=FACE_BOUND('',#159,.T.);
#90=FACE_BOUND('',#160,.T.);
#91=FACE_BOUND('',#161,.T.);
#92=FACE_BOUND('',#162,.T.);
#93=FACE_BOUND('',#163,.T.);
#94=FACE_BOUND('',#164,.T.);
#95=FACE_BOUND('',#165,.T.);
#96=FACE_BOUND('',#166,.T.);
#97=FACE_BOUND('',#167,.T.);
#98=FACE_BOUND('',#168,.T.);
#99=FACE_BOUND('',#169,.T.);
#100=FACE_BOUND('',#170,.T.);
#101=FACE_BOUND('',#171,.T.);
#102=FACE_BOUND('',#172,.T.);
#103=FACE_BOUND('',#173,.T.);
#104=FACE_BOUND('',#174,.T.);
#105=FACE_BOUND('',#175,.T.);
#106=FACE_BOUND('',#31,.T.);
#107=FACE_BOUND('',#176,.T.);
#108=FACE_BOUND('',#177,.T.);
#109=FACE_BOUND('',#178,.T.);
#110=FACE_BOUND('',#179,.T.);
#111=FACE_BOUND('',#180,.T.);
#112=FACE_BOUND('',#32,.T.);
#113=FACE_BOUND('',#181,.T.);
#114=FACE_BOUND('',#182,.T.);
#115=FACE_BOUND('',#183,.T.);
#116=FACE_BOUND('',#184,.T.);
#117=ADVANCED_FACE('',(#143),#139,.F.);
#118=ADVANCED_FACE('',(#144),#140,.T.);
#119=ADVANCED_FACE('',(#77,#78),#71,.T.);
#120=ADVANCED_FACE('',(#79,#80),#72,.T.);
#121=ADVANCED_FACE('',(#81,#82),#141,.F.);
#122=ADVANCED_FACE('',(#83,#84),#44,.T.);
#123=ADVANCED_FACE('',(#85,#86),#45,.T.);
#124=ADVANCED_FACE('',(#87,#88),#40,.T.);
#125=ADVANCED_FACE('',(#89,#90),#33,.F.);
#126=ADVANCED_FACE('',(#91,#92),#142,.F.);
#127=ADVANCED_FACE('',(#93,#94),#41,.F.);
#128=ADVANCED_FACE('',(#95,#96),#46,.T.);
#129=ADVANCED_FACE('',(#97,#98),#34,.T.);
#130=ADVANCED_FACE('',(#99,#100),#42,.F.);
#131=ADVANCED_FACE('',(#101,#102),#43,.F.);
#132=ADVANCED_FACE('',(#103,#104),#35,.T.);
#133=ADVANCED_FACE('',(#105,#106),#36,.F.);
#134=ADVANCED_FACE('',(#107,#108),#47,.F.);
#135=ADVANCED_FACE('',(#109,#110),#37,.F.);
#136=ADVANCED_FACE('',(#111,#112),#38,.F.);
#137=ADVANCED_FACE('',(#113,#114),#48,.F.);
#138=ADVANCED_FACE('',(#115,#116),#39,.F.);
#139=PLANE('',#290);
#140=PLANE('',#292);
#141=PLANE('',#297);
#142=PLANE('',#310);
#143=FACE_OUTER_BOUND('',#145,.T.);
#144=FACE_OUTER_BOUND('',#146,.T.);
#145=EDGE_LOOP('',(#185));
#146=EDGE_LOOP('',(#186));
#147=EDGE_LOOP('',(#187));
#148=EDGE_LOOP('',(#188));
#149=EDGE_LOOP('',(#189));
#150=EDGE_LOOP('',(#190));
#151=EDGE_LOOP('',(#191));
#152=EDGE_LOOP('',(#192));
#153=EDGE_LOOP('',(#193));
#154=EDGE_LOOP('',(#194));
#155=EDGE_LOOP('',(#195));
#156=EDGE_LOOP('',(#196));
#157=EDGE_LOOP('',(#197));
#158=EDGE_LOOP('',(#198));
#159=EDGE_LOOP('',(#199));
#160=EDGE_LOOP('',(#200));
#161=EDGE_LOOP('',(#201));
#162=EDGE_LOOP('',(#202));
#163=EDGE_LOOP('',(#203));
#164=EDGE_LOOP('',(#204));
#165=EDGE_LOOP('',(#205));
#166=EDGE_LOOP('',(#206));
#167=EDGE_LOOP('',(#207));
#168=EDGE_LOOP('',(#208));
#169=EDGE_LOOP('',(#209));
#170=EDGE_LOOP('',(#210));
#171=EDGE_LOOP('',(#211));
#172=EDGE_LOOP('',(#212));
#173=EDGE_LOOP('',(#213));
#174=EDGE_LOOP('',(#214));
#175=EDGE_LOOP('',(#215));
#176=EDGE_LOOP('',(#216));
#177=EDGE_LOOP('',(#217));
#178=EDGE_LOOP('',(#218));
#179=EDGE_LOOP('',(#219));
#180=EDGE_LOOP('',(#220));
#181=EDGE_LOOP('',(#221));
#182=EDGE_LOOP('',(#222));
#183=EDGE_LOOP('',(#223));
#184=EDGE_LOOP('',(#224));
#185=ORIENTED_EDGE('',*,*,#247,.F.);
#186=ORIENTED_EDGE('',*,*,#248,.T.);
#187=ORIENTED_EDGE('',*,*,#248,.F.);
#188=ORIENTED_EDGE('',*,*,#249,.T.);
#189=ORIENTED_EDGE('',*,*,#249,.F.);
#190=ORIENTED_EDGE('',*,*,#247,.T.);
#191=ORIENTED_EDGE('',*,*,#250,.T.);
#192=ORIENTED_EDGE('',*,*,#251,.T.);
#193=ORIENTED_EDGE('',*,*,#252,.T.);
#194=ORIENTED_EDGE('',*,*,#253,.T.);
#195=ORIENTED_EDGE('',*,*,#254,.F.);
#196=ORIENTED_EDGE('',*,*,#255,.T.);
#197=ORIENTED_EDGE('',*,*,#255,.F.);
#198=ORIENTED_EDGE('',*,*,#256,.T.);
#199=ORIENTED_EDGE('',*,*,#257,.T.);
#200=ORIENTED_EDGE('',*,*,#256,.F.);
#201=ORIENTED_EDGE('',*,*,#258,.T.);
#202=ORIENTED_EDGE('',*,*,#259,.T.);
#203=ORIENTED_EDGE('',*,*,#260,.T.);
#204=ORIENTED_EDGE('',*,*,#253,.F.);
#205=ORIENTED_EDGE('',*,*,#261,.T.);
#206=ORIENTED_EDGE('',*,*,#260,.F.);
#207=ORIENTED_EDGE('',*,*,#262,.T.);
#208=ORIENTED_EDGE('',*,*,#254,.T.);
#209=ORIENTED_EDGE('',*,*,#262,.F.);
#210=ORIENTED_EDGE('',*,*,#261,.F.);
#211=ORIENTED_EDGE('',*,*,#259,.F.);
#212=ORIENTED_EDGE('',*,*,#257,.F.);
#213=ORIENTED_EDGE('',*,*,#252,.F.);
#214=ORIENTED_EDGE('',*,*,#251,.F.);
#215=ORIENTED_EDGE('',*,*,#263,.F.);
#216=ORIENTED_EDGE('',*,*,#263,.T.);
#217=ORIENTED_EDGE('',*,*,#264,.F.);
#218=ORIENTED_EDGE('',*,*,#264,.T.);
#219=ORIENTED_EDGE('',*,*,#258,.F.);
#220=ORIENTED_EDGE('',*,*,#265,.F.);
#221=ORIENTED_EDGE('',*,*,#265,.T.);
#222=ORIENTED_EDGE('',*,*,#266,.F.);
#223=ORIENTED_EDGE('',*,*,#266,.T.);
#224=ORIENTED_EDGE('',*,*,#250,.F.);
#225=VERTEX_POINT('',#419);
#226=VERTEX_POINT('',#422);
#227=VERTEX_POINT('',#425);
#228=VERTEX_POINT('',#431);
#229=VERTEX_POINT('',#433);
#230=VERTEX_POINT('',#436);
#231=VERTEX_POINT('',#438);
#232=VERTEX_POINT('',#441);
#233=VERTEX_POINT('',#443);
#234=VERTEX_POINT('',#446);
#235=VERTEX_POINT('',#449);
#236=VERTEX_POINT('',#452);
#237=VERTEX_POINT('',#454);
#238=VERTEX_POINT('',#457);
#239=VERTEX_POINT('',#460);
#240=VERTEX_POINT('',#463);
#241=VERTEX_POINT('',#469);
#242=VERTEX_POINT('',#470);
#243=VERTEX_POINT('',#473);
#244=VERTEX_POINT('',#477);
#245=VERTEX_POINT('',#478);
#246=VERTEX_POINT('',#481);
#247=EDGE_CURVE('',#225,#225,#267,.T.);
#248=EDGE_CURVE('',#226,#226,#268,.T.);
#249=EDGE_CURVE('',#227,#227,#269,.T.);
#250=EDGE_CURVE('',#228,#228,#271,.T.);
#251=EDGE_CURVE('',#229,#229,#272,.T.);
#252=EDGE_CURVE('',#230,#230,#273,.T.);
#253=EDGE_CURVE('',#231,#231,#274,.T.);
#254=EDGE_CURVE('',#232,#232,#275,.T.);
#255=EDGE_CURVE('',#233,#233,#276,.T.);
#256=EDGE_CURVE('',#234,#234,#277,.T.);
#257=EDGE_CURVE('',#235,#235,#278,.T.);
#258=EDGE_CURVE('',#236,#236,#279,.T.);
#259=EDGE_CURVE('',#237,#237,#280,.T.);
#260=EDGE_CURVE('',#238,#238,#281,.T.);
#261=EDGE_CURVE('',#239,#239,#282,.T.);
#262=EDGE_CURVE('',#240,#240,#283,.T.);
#263=EDGE_CURVE('',#241,#241,#284,.T.);
#264=EDGE_CURVE('',#243,#243,#285,.T.);
#265=EDGE_CURVE('',#244,#244,#286,.T.);
#266=EDGE_CURVE('',#246,#246,#287,.T.);
#267=CIRCLE('',#289,14.5280617366423);
#268=CIRCLE('',#291,19.9389886937102);
#269=CIRCLE('',#293,19.9441290502462);
#270=CIRCLE('',#294,3.);
#271=CIRCLE('',#295,4.15);
#272=CIRCLE('',#296,14.5);
#273=CIRCLE('',#298,16.);
#274=CIRCLE('',#299,16.);
#275=CIRCLE('',#301,19.1);
#276=CIRCLE('',#302,19.1);
#277=CIRCLE('',#304,15.7990055202791);
#278=CIRCLE('',#306,11.4933681397587);
#279=CIRCLE('',#308,2.125);
#280=CIRCLE('',#309,6.49005320735572);
#281=CIRCLE('',#311,15.8);
#282=CIRCLE('',#313,15.8);
#283=CIRCLE('',#315,15.9362966948438);
#284=CIRCLE('',#320,1.);
#285=CIRCLE('',#322,1.);
#286=CIRCLE('',#325,3.);
#287=CIRCLE('',#327,3.);
#288=AXIS2_PLACEMENT_3D('',#417,#330,#331);
#289=AXIS2_PLACEMENT_3D('',#418,#332,#333);
#290=AXIS2_PLACEMENT_3D('',#420,#334,#335);
#291=AXIS2_PLACEMENT_3D('',#421,#336,#337);
#292=AXIS2_PLACEMENT_3D('',#423,#338,#339);
#293=AXIS2_PLACEMENT_3D('',#424,#340,#341);
#294=AXIS2_PLACEMENT_3D('',#428,#344,#345);
#295=AXIS2_PLACEMENT_3D('',#430,#347,#348);
#296=AXIS2_PLACEMENT_3D('',#432,#349,#350);
#297=AXIS2_PLACEMENT_3D('',#434,#351,#352);
#298=AXIS2_PLACEMENT_3D('',#435,#353,#354);
#299=AXIS2_PLACEMENT_3D('',#437,#355,#356);
#300=AXIS2_PLACEMENT_3D('',#439,#357,#358);
#301=AXIS2_PLACEMENT_3D('',#440,#359,#360);
#302=AXIS2_PLACEMENT_3D('',#442,#361,#362);
#303=AXIS2_PLACEMENT_3D('',#444,#363,#364);
#304=AXIS2_PLACEMENT_3D('',#445,#365,#366);
#305=AXIS2_PLACEMENT_3D('',#447,#367,#368);
#306=AXIS2_PLACEMENT_3D('',#448,#369,#370);
#307=AXIS2_PLACEMENT_3D('',#450,#371,#372);
#308=AXIS2_PLACEMENT_3D('',#451,#373,#374);
#309=AXIS2_PLACEMENT_3D('',#453,#375,#376);
#310=AXIS2_PLACEMENT_3D('',#455,#377,#378);
#311=AXIS2_PLACEMENT_3D('',#456,#379,#380);
#312=AXIS2_PLACEMENT_3D('',#458,#381,#382);
#313=AXIS2_PLACEMENT_3D('',#459,#383,#384);
#314=AXIS2_PLACEMENT_3D('',#461,#385,#386);
#315=AXIS2_PLACEMENT_3D('',#462,#387,#388);
#316=AXIS2_PLACEMENT_3D('',#464,#389,#390);
#317=AXIS2_PLACEMENT_3D('',#465,#391,#392);
#318=AXIS2_PLACEMENT_3D('',#466,#393,#394);
#319=AXIS2_PLACEMENT_3D('',#467,#395,#396);
#320=AXIS2_PLACEMENT_3D('',#468,#397,#398);
#321=AXIS2_PLACEMENT_3D('',#471,#399,#400);
#322=AXIS2_PLACEMENT_3D('',#472,#401,#402);
#323=AXIS2_PLACEMENT_3D('',#474,#403,#404);
#324=AXIS2_PLACEMENT_3D('',#475,#405,#406);
#325=AXIS2_PLACEMENT_3D('',#476,#407,#408);
#326=AXIS2_PLACEMENT_3D('',#479,#409,#410);
#327=AXIS2_PLACEMENT_3D('',#480,#411,#412);
#328=AXIS2_PLACEMENT_3D('',#482,#413,#414);
#329=AXIS2_PLACEMENT_3D('',#483,#415,#416);
#330=DIRECTION('',(0.,0.,1.));
#331=DIRECTION('',(1.,0.,0.));
#332=DIRECTION('',(1.,0.,0.));
#333=DIRECTION('',(0.,0.,-1.));
#334=DIRECTION('',(1.,0.,0.));
#335=DIRECTION('',(0.,0.,-1.));
#336=DIRECTION('',(1.,0.,0.));
#337=DIRECTION('',(0.,0.,-1.));
#338=DIRECTION('',(1.,0.,0.));
#339=DIRECTION('',(0.,0.,-1.));
#340=DIRECTION('',(1.,0.,0.));
#341=DIRECTION('',(0.,0.,-1.));
#342=DIRECTION('',(0.998622173124775,-0.00383971491924344,-0.0523355704362737));
#343=DIRECTION('',(1.,0.,0.));
#344=DIRECTION('',(0.0523359562429433,0.,0.998629534754574));
#345=DIRECTION('',(0.998622173124776,-0.00383971491924351,-0.0523355704362737));
#346=DIRECTION('',(1.,0.,0.));
#347=DIRECTION('',(-1.,0.,0.));
#348=DIRECTION('',(0.,0.,1.));
#349=DIRECTION('',(1.,0.,0.));
#350=DIRECTION('',(0.,0.,1.));
#351=DIRECTION('',(-1.,0.,0.));
#352=DIRECTION('',(0.,0.,1.));
#353=DIRECTION('',(-1.,0.,0.));
#354=DIRECTION('',(0.,0.,1.));
#355=DIRECTION('',(1.,0.,0.));
#356=DIRECTION('',(0.,0.,-1.));
#357=DIRECTION('',(1.,0.,0.));
#358=DIRECTION('',(0.,0.,-1.));
#359=DIRECTION('',(1.,0.,0.));
#360=DIRECTION('',(0.,0.,-1.));
#361=DIRECTION('',(1.,0.,0.));
#362=DIRECTION('',(0.,0.,-1.));
#363=DIRECTION('',(1.,0.,0.));
#364=DIRECTION('',(0.,0.,-1.));
#365=DIRECTION('',(1.,0.,0.));
#366=DIRECTION('',(0.,0.,-1.));
#367=DIRECTION('',(1.,0.,0.));
#368=DIRECTION('',(0.,0.,-1.));
#369=DIRECTION('',(1.,0.,0.));
#370=DIRECTION('',(0.,0.,1.));
#371=DIRECTION('',(-1.,0.,0.));
#372=DIRECTION('',(4.64935145729308E-17,0.,1.));
#373=DIRECTION('',(1.,0.,0.));
#374=DIRECTION('',(0.,0.,-1.));
#375=DIRECTION('',(-1.,0.,0.));
#376=DIRECTION('',(0.,0.,-1.));
#377=DIRECTION('',(1.,0.,0.));
#378=DIRECTION('',(0.,0.,-1.));
#379=DIRECTION('',(1.,0.,0.));
#380=DIRECTION('',(0.,0.,-1.));
#381=DIRECTION('',(1.,0.,0.));
#382=DIRECTION('',(0.,0.,-1.));
#383=DIRECTION('',(1.,0.,0.));
#384=DIRECTION('',(0.,0.,-1.));
#385=DIRECTION('',(1.,0.,0.));
#386=DIRECTION('',(0.,0.,-1.));
#387=DIRECTION('',(-1.,0.,0.));
#388=DIRECTION('',(0.,0.,1.));
#389=DIRECTION('',(-1.,0.,0.));
#390=DIRECTION('',(-1.46725927452813E-16,0.,1.));
#391=DIRECTION('',(1.,0.,0.));
#392=DIRECTION('',(0.,0.,-1.));
#393=DIRECTION('',(1.,0.,0.));
#394=DIRECTION('',(0.,0.,-1.));
#395=DIRECTION('',(-1.,0.,0.));
#396=DIRECTION('',(2.73588719720345E-17,0.,1.));
#397=DIRECTION('',(1.,0.,0.));
#398=DIRECTION('',(0.,0.,-1.));
#399=DIRECTION('',(-1.,0.,0.));
#400=DIRECTION('',(-2.60425276111651E-17,0.,1.));
#401=DIRECTION('',(1.,0.,0.));
#402=DIRECTION('',(0.,0.,-1.));
#403=DIRECTION('',(1.,0.,0.));
#404=DIRECTION('',(0.,0.,-1.));
#405=DIRECTION('',(-1.,0.,0.));
#406=DIRECTION('',(5.38849960089747E-17,0.,1.));
#407=DIRECTION('',(-1.,0.,0.));
#408=DIRECTION('',(0.,0.,1.));
#409=DIRECTION('',(1.,0.,0.));
#410=DIRECTION('',(2.08090304515858E-17,0.,-1.));
#411=DIRECTION('',(-1.,0.,0.));
#412=DIRECTION('',(0.,0.,1.));
#413=DIRECTION('',(-1.,0.,0.));
#414=DIRECTION('',(0.,0.,1.));
#415=DIRECTION('',(1.,0.,0.));
#416=DIRECTION('',(-1.4319292915019E-16,0.,-1.));
#417=CARTESIAN_POINT('',(0.,0.,0.));
#418=CARTESIAN_POINT('',(1.28695316165965,0.,0.));
#419=CARTESIAN_POINT('',(1.28695316165965,0.,-14.5280617366423));
#420=CARTESIAN_POINT('',(1.28695316165965,0.,0.));
#421=CARTESIAN_POINT('',(15.5939773373589,0.,0.));
#422=CARTESIAN_POINT('',(15.5939773373589,0.,-19.9389886937102));
#423=CARTESIAN_POINT('',(15.5939773373589,0.,0.));
#424=CARTESIAN_POINT('',(2.98438524609431,0.,0.));
#425=CARTESIAN_POINT('',(2.98438524609431,0.,-19.9441290502462));
#426=CARTESIAN_POINT('',(2.98438524609432,-19.8491995320106,1.94359499672713));
#427=CARTESIAN_POINT('',(0.,0.,0.));
#428=CARTESIAN_POINT('',(2.9958886042645,-16.8492216472081,1.94299213127114));
#429=CARTESIAN_POINT('',(0.,0.,0.));
#430=CARTESIAN_POINT('',(150.,6.7762635780344E-18,0.));
#431=CARTESIAN_POINT('',(150.,6.7762635780344E-18,4.15));
#432=CARTESIAN_POINT('',(150.,0.,0.));
#433=CARTESIAN_POINT('',(150.,0.,14.5));
#434=CARTESIAN_POINT('',(150.,-16.,0.));
#435=CARTESIAN_POINT('',(148.5,0.,0.));
#436=CARTESIAN_POINT('',(148.5,0.,16.));
#437=CARTESIAN_POINT('',(45.,0.,0.));
#438=CARTESIAN_POINT('',(45.,0.,-16.));
#439=CARTESIAN_POINT('',(0.,0.,0.));
#440=CARTESIAN_POINT('',(25.8,0.,0.));
#441=CARTESIAN_POINT('',(25.8,0.,-19.1));
#442=CARTESIAN_POINT('',(2.6,0.,0.));
#443=CARTESIAN_POINT('',(2.6,0.,-19.1));
#444=CARTESIAN_POINT('',(0.,0.,0.));
#445=CARTESIAN_POINT('',(1.6065134264383,0.,0.));
#446=CARTESIAN_POINT('',(1.6065134264383,0.,-15.7990055202791));
#447=CARTESIAN_POINT('',(2.6,0.,0.));
#448=CARTESIAN_POINT('',(8.11162191187236,0.,0.));
#449=CARTESIAN_POINT('',(8.11162191187236,0.,11.4933681397587));
#450=CARTESIAN_POINT('',(10.8,0.,0.));
#451=CARTESIAN_POINT('',(10.8,0.,0.));
#452=CARTESIAN_POINT('',(10.8,0.,-2.125));
#453=CARTESIAN_POINT('',(10.8,0.,0.));
#454=CARTESIAN_POINT('',(10.8,0.,-6.49005320735572));
#455=CARTESIAN_POINT('',(10.8,0.,0.));
#456=CARTESIAN_POINT('',(43.7510004003203,0.,0.));
#457=CARTESIAN_POINT('',(43.7510004003203,0.,-15.8));
#458=CARTESIAN_POINT('',(43.7510004003203,0.,0.));
#459=CARTESIAN_POINT('',(38.6423776553268,0.,0.));
#460=CARTESIAN_POINT('',(38.6423776553268,0.,-15.8));
#461=CARTESIAN_POINT('',(0.,0.,0.));
#462=CARTESIAN_POINT('',(37.6071014749168,0.,0.));
#463=CARTESIAN_POINT('',(37.6071014749168,0.,15.9362966948438));
#464=CARTESIAN_POINT('',(38.1157676649773,0.,0.));
#465=CARTESIAN_POINT('',(38.6423776553268,0.,0.));
#466=CARTESIAN_POINT('',(4.8,0.,0.));
#467=CARTESIAN_POINT('',(150.,0.,0.));
#468=CARTESIAN_POINT('',(14.5,0.,0.));
#469=CARTESIAN_POINT('',(14.5,0.,-1.));
#470=CARTESIAN_POINT('',(15.1008606190276,0.,0.));
#471=CARTESIAN_POINT('',(14.5,0.,0.));
#472=CARTESIAN_POINT('',(12.748557158515,0.,0.));
#473=CARTESIAN_POINT('',(12.748557158515,0.,-1.));
#474=CARTESIAN_POINT('',(14.5,0.,0.));
#475=CARTESIAN_POINT('',(10.8,0.,0.));
#476=CARTESIAN_POINT('',(40.,6.7762635780344E-18,0.));
#477=CARTESIAN_POINT('',(40.,6.7762635780344E-18,3.));
#478=CARTESIAN_POINT('',(38.1974181429173,6.7762635780344E-18,0.));
#479=CARTESIAN_POINT('',(40.,6.7762635780344E-18,0.));
#480=CARTESIAN_POINT('',(148.008141571296,6.7762635780344E-18,0.));
#481=CARTESIAN_POINT('',(148.008141571296,6.7762635780344E-18,3.));
#482=CARTESIAN_POINT('',(40.,6.7762635780344E-18,0.));
#483=CARTESIAN_POINT('',(150.,6.7762635780344E-18,0.));
#484=MECHANICAL_DESIGN_GEOMETRIC_PRESENTATION_REPRESENTATION('',(#51,#52),
#485);
#485=(
GEOMETRIC_REPRESENTATION_CONTEXT(3)
GLOBAL_UNCERTAINTY_ASSIGNED_CONTEXT((#486))
GLOBAL_UNIT_ASSIGNED_CONTEXT((#492,#488,#487))
REPRESENTATION_CONTEXT('40A3R045A32-SVC22C-SIM',
'TOP_LEVEL_ASSEMBLY_PART')
);
#486=UNCERTAINTY_MEASURE_WITH_UNIT(LENGTH_MEASURE(2.E-5),#492,
'DISTANCE_ACCURACY_VALUE','Maximum Tolerance applied to model');
#487=(
NAMED_UNIT(*)
SI_UNIT($,.STERADIAN.)
SOLID_ANGLE_UNIT()
);
#488=(
CONVERSION_BASED_UNIT('DEGREE',#490)
NAMED_UNIT(#489)
PLANE_ANGLE_UNIT()
);
#489=DIMENSIONAL_EXPONENTS(0.,0.,0.,0.,0.,0.,0.);
#490=PLANE_ANGLE_MEASURE_WITH_UNIT(PLANE_ANGLE_MEASURE(0.0174532925),#491);
#491=(
NAMED_UNIT(*)
PLANE_ANGLE_UNIT()
SI_UNIT($,.RADIAN.)
);
#492=(
LENGTH_UNIT()
NAMED_UNIT(*)
SI_UNIT(.MILLI.,.METRE.)
);
ENDSEC;
END-ISO-10303-21;
