ISO-10303-21;
HEADER;
/* Generated by software containing ST-Developer
 * from STEP Tools, Inc. (www.steptools.com) 
 */
/* OPTION: using custom schema-name function */

FILE_DESCRIPTION(
/* description */ (''),
/* implementation_level */ '2;1');

FILE_NAME(
/* name */ 'ax_step_export_ax_temp_1.stp',
/* time_stamp */ '2019-09-12T08:48:04+02:00',
/* author */ (''),
/* organization */ (''),
/* preprocessor_version */ 'ST-DEVELOPER v16.7',
/* originating_system */ 'SIEMENS PLM Software NX 12.0',
/* authorisation */ '');

FILE_SCHEMA (('AUTOMOTIVE_DESIGN { 1 0 10303 214 3 1 1 1 }'));
ENDSEC;

DATA;
#10=SHAPE_REPRESENTATION_RELATIONSHIP('None',
'relationship between ax_temp_1-None and ax_temp_1-None',#22,#11);
#11=ADVANCED_BREP_SHAPE_REPRESENTATION('ax_temp_1-None',(#203,#204),#672);
#12=SHAPE_DEFINITION_REPRESENTATION(#13,#22);
#13=PRODUCT_DEFINITION_SHAPE('','',#14);
#14=PRODUCT_DEFINITION(' ','',#16,#15);
#15=PRODUCT_DEFINITION_CONTEXT('part definition',#21,'design');
#16=PRODUCT_DEFINITION_FORMATION_WITH_SPECIFIED_SOURCE(' ',' ',#18,
 .NOT_KNOWN.);
#17=PRODUCT_RELATED_PRODUCT_CATEGORY('part','',(#18));
#18=PRODUCT('ax_temp_1','ax_temp_1',' ',(#19));
#19=PRODUCT_CONTEXT(' ',#21,'mechanical');
#20=APPLICATION_PROTOCOL_DEFINITION('international standard',
'automotive_design',2010,#21);
#21=APPLICATION_CONTEXT(
'core data for automotive mechanical design processes');
#22=SHAPE_REPRESENTATION('ax_temp_1-None',(#459),#672);
#23=OVER_RIDING_STYLED_ITEM('',(#52),#231,#49);
#24=OVER_RIDING_STYLED_ITEM('',(#53),#232,#49);
#25=OVER_RIDING_STYLED_ITEM('',(#54),#233,#49);
#26=OVER_RIDING_STYLED_ITEM('',(#55),#234,#49);
#27=OVER_RIDING_STYLED_ITEM('',(#56),#235,#49);
#28=OVER_RIDING_STYLED_ITEM('',(#57),#236,#49);
#29=OVER_RIDING_STYLED_ITEM('',(#58),#237,#49);
#30=OVER_RIDING_STYLED_ITEM('',(#59),#238,#49);
#31=OVER_RIDING_STYLED_ITEM('',(#60),#239,#49);
#32=OVER_RIDING_STYLED_ITEM('',(#61),#240,#49);
#33=OVER_RIDING_STYLED_ITEM('',(#62),#241,#49);
#34=OVER_RIDING_STYLED_ITEM('',(#63),#242,#49);
#35=OVER_RIDING_STYLED_ITEM('',(#64),#243,#49);
#36=OVER_RIDING_STYLED_ITEM('',(#65),#244,#49);
#37=OVER_RIDING_STYLED_ITEM('',(#66),#245,#49);
#38=OVER_RIDING_STYLED_ITEM('',(#67),#246,#49);
#39=OVER_RIDING_STYLED_ITEM('',(#68),#247,#49);
#40=OVER_RIDING_STYLED_ITEM('',(#69),#248,#49);
#41=OVER_RIDING_STYLED_ITEM('',(#70),#249,#49);
#42=OVER_RIDING_STYLED_ITEM('',(#71),#250,#49);
#43=OVER_RIDING_STYLED_ITEM('',(#72),#251,#49);
#44=OVER_RIDING_STYLED_ITEM('',(#73),#252,#49);
#45=OVER_RIDING_STYLED_ITEM('',(#74),#253,#49);
#46=INVISIBILITY((#47,#48));
#47=PRESENTATION_LAYER_ASSIGNMENT('14','Layer 14',(#203));
#48=PRESENTATION_LAYER_ASSIGNMENT('96','Layer 96',(#204));
#49=STYLED_ITEM('',(#51),#203);
#50=STYLED_ITEM('',(#75),#204);
#51=PRESENTATION_STYLE_ASSIGNMENT((#76));
#52=PRESENTATION_STYLE_ASSIGNMENT((#77));
#53=PRESENTATION_STYLE_ASSIGNMENT((#78));
#54=PRESENTATION_STYLE_ASSIGNMENT((#79));
#55=PRESENTATION_STYLE_ASSIGNMENT((#80));
#56=PRESENTATION_STYLE_ASSIGNMENT((#81));
#57=PRESENTATION_STYLE_ASSIGNMENT((#82));
#58=PRESENTATION_STYLE_ASSIGNMENT((#83));
#59=PRESENTATION_STYLE_ASSIGNMENT((#84));
#60=PRESENTATION_STYLE_ASSIGNMENT((#85));
#61=PRESENTATION_STYLE_ASSIGNMENT((#86));
#62=PRESENTATION_STYLE_ASSIGNMENT((#87));
#63=PRESENTATION_STYLE_ASSIGNMENT((#88));
#64=PRESENTATION_STYLE_ASSIGNMENT((#89));
#65=PRESENTATION_STYLE_ASSIGNMENT((#90));
#66=PRESENTATION_STYLE_ASSIGNMENT((#91));
#67=PRESENTATION_STYLE_ASSIGNMENT((#92));
#68=PRESENTATION_STYLE_ASSIGNMENT((#93));
#69=PRESENTATION_STYLE_ASSIGNMENT((#94));
#70=PRESENTATION_STYLE_ASSIGNMENT((#95));
#71=PRESENTATION_STYLE_ASSIGNMENT((#96));
#72=PRESENTATION_STYLE_ASSIGNMENT((#97));
#73=PRESENTATION_STYLE_ASSIGNMENT((#98));
#74=PRESENTATION_STYLE_ASSIGNMENT((#99));
#75=PRESENTATION_STYLE_ASSIGNMENT((#100));
#76=SURFACE_STYLE_USAGE(.BOTH.,#101);
#77=SURFACE_STYLE_USAGE(.BOTH.,#102);
#78=SURFACE_STYLE_USAGE(.BOTH.,#103);
#79=SURFACE_STYLE_USAGE(.BOTH.,#104);
#80=SURFACE_STYLE_USAGE(.BOTH.,#105);
#81=SURFACE_STYLE_USAGE(.BOTH.,#106);
#82=SURFACE_STYLE_USAGE(.BOTH.,#107);
#83=SURFACE_STYLE_USAGE(.BOTH.,#108);
#84=SURFACE_STYLE_USAGE(.BOTH.,#109);
#85=SURFACE_STYLE_USAGE(.BOTH.,#110);
#86=SURFACE_STYLE_USAGE(.BOTH.,#111);
#87=SURFACE_STYLE_USAGE(.BOTH.,#112);
#88=SURFACE_STYLE_USAGE(.BOTH.,#113);
#89=SURFACE_STYLE_USAGE(.BOTH.,#114);
#90=SURFACE_STYLE_USAGE(.BOTH.,#115);
#91=SURFACE_STYLE_USAGE(.BOTH.,#116);
#92=SURFACE_STYLE_USAGE(.BOTH.,#117);
#93=SURFACE_STYLE_USAGE(.BOTH.,#118);
#94=SURFACE_STYLE_USAGE(.BOTH.,#119);
#95=SURFACE_STYLE_USAGE(.BOTH.,#120);
#96=SURFACE_STYLE_USAGE(.BOTH.,#121);
#97=SURFACE_STYLE_USAGE(.BOTH.,#122);
#98=SURFACE_STYLE_USAGE(.BOTH.,#123);
#99=SURFACE_STYLE_USAGE(.BOTH.,#124);
#100=SURFACE_STYLE_USAGE(.BOTH.,#125);
#101=SURFACE_SIDE_STYLE('',(#126));
#102=SURFACE_SIDE_STYLE('',(#127));
#103=SURFACE_SIDE_STYLE('',(#128));
#104=SURFACE_SIDE_STYLE('',(#129));
#105=SURFACE_SIDE_STYLE('',(#130));
#106=SURFACE_SIDE_STYLE('',(#131));
#107=SURFACE_SIDE_STYLE('',(#132));
#108=SURFACE_SIDE_STYLE('',(#133));
#109=SURFACE_SIDE_STYLE('',(#134));
#110=SURFACE_SIDE_STYLE('',(#135));
#111=SURFACE_SIDE_STYLE('',(#136));
#112=SURFACE_SIDE_STYLE('',(#137));
#113=SURFACE_SIDE_STYLE('',(#138));
#114=SURFACE_SIDE_STYLE('',(#139));
#115=SURFACE_SIDE_STYLE('',(#140));
#116=SURFACE_SIDE_STYLE('',(#141));
#117=SURFACE_SIDE_STYLE('',(#142));
#118=SURFACE_SIDE_STYLE('',(#143));
#119=SURFACE_SIDE_STYLE('',(#144));
#120=SURFACE_SIDE_STYLE('',(#145));
#121=SURFACE_SIDE_STYLE('',(#146));
#122=SURFACE_SIDE_STYLE('',(#147));
#123=SURFACE_SIDE_STYLE('',(#148));
#124=SURFACE_SIDE_STYLE('',(#149));
#125=SURFACE_SIDE_STYLE('',(#150));
#126=SURFACE_STYLE_FILL_AREA(#151);
#127=SURFACE_STYLE_FILL_AREA(#152);
#128=SURFACE_STYLE_FILL_AREA(#153);
#129=SURFACE_STYLE_FILL_AREA(#154);
#130=SURFACE_STYLE_FILL_AREA(#155);
#131=SURFACE_STYLE_FILL_AREA(#156);
#132=SURFACE_STYLE_FILL_AREA(#157);
#133=SURFACE_STYLE_FILL_AREA(#158);
#134=SURFACE_STYLE_FILL_AREA(#159);
#135=SURFACE_STYLE_FILL_AREA(#160);
#136=SURFACE_STYLE_FILL_AREA(#161);
#137=SURFACE_STYLE_FILL_AREA(#162);
#138=SURFACE_STYLE_FILL_AREA(#163);
#139=SURFACE_STYLE_FILL_AREA(#164);
#140=SURFACE_STYLE_FILL_AREA(#165);
#141=SURFACE_STYLE_FILL_AREA(#166);
#142=SURFACE_STYLE_FILL_AREA(#167);
#143=SURFACE_STYLE_FILL_AREA(#168);
#144=SURFACE_STYLE_FILL_AREA(#169);
#145=SURFACE_STYLE_FILL_AREA(#170);
#146=SURFACE_STYLE_FILL_AREA(#171);
#147=SURFACE_STYLE_FILL_AREA(#172);
#148=SURFACE_STYLE_FILL_AREA(#173);
#149=SURFACE_STYLE_FILL_AREA(#174);
#150=SURFACE_STYLE_FILL_AREA(#175);
#151=FILL_AREA_STYLE('',(#176));
#152=FILL_AREA_STYLE('',(#177));
#153=FILL_AREA_STYLE('',(#178));
#154=FILL_AREA_STYLE('',(#179));
#155=FILL_AREA_STYLE('',(#180));
#156=FILL_AREA_STYLE('',(#181));
#157=FILL_AREA_STYLE('',(#182));
#158=FILL_AREA_STYLE('',(#183));
#159=FILL_AREA_STYLE('',(#184));
#160=FILL_AREA_STYLE('',(#185));
#161=FILL_AREA_STYLE('',(#186));
#162=FILL_AREA_STYLE('',(#187));
#163=FILL_AREA_STYLE('',(#188));
#164=FILL_AREA_STYLE('',(#189));
#165=FILL_AREA_STYLE('',(#190));
#166=FILL_AREA_STYLE('',(#191));
#167=FILL_AREA_STYLE('',(#192));
#168=FILL_AREA_STYLE('',(#193));
#169=FILL_AREA_STYLE('',(#194));
#170=FILL_AREA_STYLE('',(#195));
#171=FILL_AREA_STYLE('',(#196));
#172=FILL_AREA_STYLE('',(#197));
#173=FILL_AREA_STYLE('',(#198));
#174=FILL_AREA_STYLE('',(#199));
#175=FILL_AREA_STYLE('',(#200));
#176=FILL_AREA_STYLE_COLOUR('',#201);
#177=FILL_AREA_STYLE_COLOUR('',#202);
#178=FILL_AREA_STYLE_COLOUR('',#202);
#179=FILL_AREA_STYLE_COLOUR('',#202);
#180=FILL_AREA_STYLE_COLOUR('',#202);
#181=FILL_AREA_STYLE_COLOUR('',#202);
#182=FILL_AREA_STYLE_COLOUR('',#202);
#183=FILL_AREA_STYLE_COLOUR('',#202);
#184=FILL_AREA_STYLE_COLOUR('',#202);
#185=FILL_AREA_STYLE_COLOUR('',#202);
#186=FILL_AREA_STYLE_COLOUR('',#202);
#187=FILL_AREA_STYLE_COLOUR('',#202);
#188=FILL_AREA_STYLE_COLOUR('',#202);
#189=FILL_AREA_STYLE_COLOUR('',#202);
#190=FILL_AREA_STYLE_COLOUR('',#202);
#191=FILL_AREA_STYLE_COLOUR('',#202);
#192=FILL_AREA_STYLE_COLOUR('',#202);
#193=FILL_AREA_STYLE_COLOUR('',#202);
#194=FILL_AREA_STYLE_COLOUR('',#202);
#195=FILL_AREA_STYLE_COLOUR('',#202);
#196=FILL_AREA_STYLE_COLOUR('',#202);
#197=FILL_AREA_STYLE_COLOUR('',#202);
#198=FILL_AREA_STYLE_COLOUR('',#202);
#199=FILL_AREA_STYLE_COLOUR('',#202);
#200=FILL_AREA_STYLE_COLOUR('',#201);
#201=COLOUR_RGB('Light grey',0.8,0.8,0.8);
#202=COLOUR_RGB('Medium grey',0.6,0.6,0.6);
#203=MANIFOLD_SOLID_BREP('',#205);
#204=MANIFOLD_SOLID_BREP('',#206);
#205=CLOSED_SHELL('',(#231,#232,#233,#234,#235,#236,#237,#238,#239,#240,
#241,#242,#243,#244,#245,#246,#247,#248,#249,#250,#251,#252,#253));
#206=CLOSED_SHELL('',(#254));
#207=VERTEX_LOOP('',#412);
#208=VERTEX_LOOP('',#414);
#209=FACE_OUTER_BOUND('',#313,.T.);
#210=TOROIDAL_SURFACE('',#470,12.9016309477819,3.89836905221813);
#211=TOROIDAL_SURFACE('',#478,4.28899150537965,1.6);
#212=TOROIDAL_SURFACE('',#479,17.5,3.);
#213=TOROIDAL_SURFACE('',#480,13.8,3.);
#214=TOROIDAL_SURFACE('',#484,8.69999999999999,0.4);
#215=TOROIDAL_SURFACE('',#488,8.69999999999999,0.4);
#216=TOROIDAL_SURFACE('',#505,12.475,5.);
#217=CYLINDRICAL_SURFACE('',#468,16.8);
#218=CYLINDRICAL_SURFACE('',#477,14.5);
#219=CYLINDRICAL_SURFACE('',#486,8.29999999999999);
#220=CYLINDRICAL_SURFACE('',#494,8.);
#221=CYLINDRICAL_SURFACE('',#496,8.49999999999999);
#222=CYLINDRICAL_SURFACE('',#503,2.5);
#223=CONICAL_SURFACE('',#465,14.5,35.0000000000001);
#224=CONICAL_SURFACE('',#472,11.4412761972524,68.);
#225=CONICAL_SURFACE('',#482,9.49907116054874,75.);
#226=CONICAL_SURFACE('',#497,8.,45.);
#227=CONICAL_SURFACE('',#498,8.49999999999999,45.);
#228=CONICAL_SURFACE('',#499,14.,45.);
#229=CONICAL_SURFACE('',#501,2.5,60.);
#230=CONICAL_SURFACE('',#504,3.6547,30.);
#231=ADVANCED_FACE('',(#258,#259),#255,.T.);
#232=ADVANCED_FACE('',(#260,#261),#223,.T.);
#233=ADVANCED_FACE('',(#262,#263),#217,.T.);
#234=ADVANCED_FACE('',(#264,#265),#210,.T.);
#235=ADVANCED_FACE('',(#266,#267),#224,.F.);
#236=ADVANCED_FACE('',(#209),#256,.T.);
#237=ADVANCED_FACE('',(#268,#269),#218,.T.);
#238=ADVANCED_FACE('',(#270,#271),#211,.F.);
#239=ADVANCED_FACE('',(#272,#273),#212,.F.);
#240=ADVANCED_FACE('',(#274,#275),#213,.T.);
#241=ADVANCED_FACE('',(#276,#277),#225,.F.);
#242=ADVANCED_FACE('',(#278,#279),#214,.F.);
#243=ADVANCED_FACE('',(#280,#281),#219,.T.);
#244=ADVANCED_FACE('',(#282,#283),#215,.F.);
#245=ADVANCED_FACE('',(#284,#285),#257,.F.);
#246=ADVANCED_FACE('',(#286,#287),#220,.T.);
#247=ADVANCED_FACE('',(#288,#289),#221,.T.);
#248=ADVANCED_FACE('',(#290,#291),#226,.T.);
#249=ADVANCED_FACE('',(#292,#293),#227,.T.);
#250=ADVANCED_FACE('',(#294,#295),#228,.T.);
#251=ADVANCED_FACE('',(#296,#297),#229,.F.);
#252=ADVANCED_FACE('',(#298,#299),#222,.F.);
#253=ADVANCED_FACE('',(#300,#301),#230,.F.);
#254=ADVANCED_FACE('',(#302),#216,.T.);
#255=PLANE('',#462);
#256=PLANE('',#474);
#257=PLANE('',#491);
#258=FACE_BOUND('',#303,.T.);
#259=FACE_BOUND('',#304,.T.);
#260=FACE_BOUND('',#305,.T.);
#261=FACE_BOUND('',#306,.T.);
#262=FACE_BOUND('',#307,.T.);
#263=FACE_BOUND('',#308,.T.);
#264=FACE_BOUND('',#309,.T.);
#265=FACE_BOUND('',#310,.T.);
#266=FACE_BOUND('',#311,.T.);
#267=FACE_BOUND('',#312,.T.);
#268=FACE_BOUND('',#314,.T.);
#269=FACE_BOUND('',#315,.T.);
#270=FACE_BOUND('',#316,.T.);
#271=FACE_BOUND('',#317,.T.);
#272=FACE_BOUND('',#318,.T.);
#273=FACE_BOUND('',#319,.T.);
#274=FACE_BOUND('',#320,.T.);
#275=FACE_BOUND('',#321,.T.);
#276=FACE_BOUND('',#322,.T.);
#277=FACE_BOUND('',#323,.T.);
#278=FACE_BOUND('',#324,.T.);
#279=FACE_BOUND('',#325,.T.);
#280=FACE_BOUND('',#326,.T.);
#281=FACE_BOUND('',#327,.T.);
#282=FACE_BOUND('',#328,.T.);
#283=FACE_BOUND('',#329,.T.);
#284=FACE_BOUND('',#330,.T.);
#285=FACE_BOUND('',#331,.T.);
#286=FACE_BOUND('',#332,.T.);
#287=FACE_BOUND('',#333,.T.);
#288=FACE_BOUND('',#334,.T.);
#289=FACE_BOUND('',#335,.T.);
#290=FACE_BOUND('',#336,.T.);
#291=FACE_BOUND('',#337,.T.);
#292=FACE_BOUND('',#338,.T.);
#293=FACE_BOUND('',#339,.T.);
#294=FACE_BOUND('',#340,.T.);
#295=FACE_BOUND('',#341,.T.);
#296=FACE_BOUND('',#342,.T.);
#297=FACE_BOUND('',#207,.T.);
#298=FACE_BOUND('',#343,.T.);
#299=FACE_BOUND('',#344,.T.);
#300=FACE_BOUND('',#345,.T.);
#301=FACE_BOUND('',#346,.T.);
#302=FACE_BOUND('',#208,.T.);
#303=EDGE_LOOP('',(#347));
#304=EDGE_LOOP('',(#348));
#305=EDGE_LOOP('',(#349));
#306=EDGE_LOOP('',(#350));
#307=EDGE_LOOP('',(#351));
#308=EDGE_LOOP('',(#352));
#309=EDGE_LOOP('',(#353));
#310=EDGE_LOOP('',(#354));
#311=EDGE_LOOP('',(#355));
#312=EDGE_LOOP('',(#356));
#313=EDGE_LOOP('',(#357));
#314=EDGE_LOOP('',(#358));
#315=EDGE_LOOP('',(#359));
#316=EDGE_LOOP('',(#360));
#317=EDGE_LOOP('',(#361));
#318=EDGE_LOOP('',(#362));
#319=EDGE_LOOP('',(#363));
#320=EDGE_LOOP('',(#364));
#321=EDGE_LOOP('',(#365));
#322=EDGE_LOOP('',(#366));
#323=EDGE_LOOP('',(#367));
#324=EDGE_LOOP('',(#368));
#325=EDGE_LOOP('',(#369));
#326=EDGE_LOOP('',(#370));
#327=EDGE_LOOP('',(#371));
#328=EDGE_LOOP('',(#372));
#329=EDGE_LOOP('',(#373));
#330=EDGE_LOOP('',(#374));
#331=EDGE_LOOP('',(#375));
#332=EDGE_LOOP('',(#376));
#333=EDGE_LOOP('',(#377));
#334=EDGE_LOOP('',(#378));
#335=EDGE_LOOP('',(#379));
#336=EDGE_LOOP('',(#380));
#337=EDGE_LOOP('',(#381));
#338=EDGE_LOOP('',(#382));
#339=EDGE_LOOP('',(#383));
#340=EDGE_LOOP('',(#384));
#341=EDGE_LOOP('',(#385));
#342=EDGE_LOOP('',(#386));
#343=EDGE_LOOP('',(#387));
#344=EDGE_LOOP('',(#388));
#345=EDGE_LOOP('',(#389));
#346=EDGE_LOOP('',(#390));
#347=ORIENTED_EDGE('',*,*,#415,.T.);
#348=ORIENTED_EDGE('',*,*,#416,.T.);
#349=ORIENTED_EDGE('',*,*,#417,.T.);
#350=ORIENTED_EDGE('',*,*,#418,.T.);
#351=ORIENTED_EDGE('',*,*,#419,.T.);
#352=ORIENTED_EDGE('',*,*,#420,.T.);
#353=ORIENTED_EDGE('',*,*,#421,.T.);
#354=ORIENTED_EDGE('',*,*,#420,.F.);
#355=ORIENTED_EDGE('',*,*,#422,.T.);
#356=ORIENTED_EDGE('',*,*,#421,.F.);
#357=ORIENTED_EDGE('',*,*,#423,.T.);
#358=ORIENTED_EDGE('',*,*,#424,.T.);
#359=ORIENTED_EDGE('',*,*,#425,.T.);
#360=ORIENTED_EDGE('',*,*,#423,.F.);
#361=ORIENTED_EDGE('',*,*,#422,.F.);
#362=ORIENTED_EDGE('',*,*,#417,.F.);
#363=ORIENTED_EDGE('',*,*,#425,.F.);
#364=ORIENTED_EDGE('',*,*,#419,.F.);
#365=ORIENTED_EDGE('',*,*,#418,.F.);
#366=ORIENTED_EDGE('',*,*,#426,.F.);
#367=ORIENTED_EDGE('',*,*,#416,.F.);
#368=ORIENTED_EDGE('',*,*,#427,.F.);
#369=ORIENTED_EDGE('',*,*,#426,.T.);
#370=ORIENTED_EDGE('',*,*,#428,.F.);
#371=ORIENTED_EDGE('',*,*,#427,.T.);
#372=ORIENTED_EDGE('',*,*,#429,.T.);
#373=ORIENTED_EDGE('',*,*,#428,.T.);
#374=ORIENTED_EDGE('',*,*,#430,.T.);
#375=ORIENTED_EDGE('',*,*,#431,.T.);
#376=ORIENTED_EDGE('',*,*,#432,.T.);
#377=ORIENTED_EDGE('',*,*,#433,.F.);
#378=ORIENTED_EDGE('',*,*,#434,.T.);
#379=ORIENTED_EDGE('',*,*,#429,.F.);
#380=ORIENTED_EDGE('',*,*,#431,.F.);
#381=ORIENTED_EDGE('',*,*,#432,.F.);
#382=ORIENTED_EDGE('',*,*,#433,.T.);
#383=ORIENTED_EDGE('',*,*,#434,.F.);
#384=ORIENTED_EDGE('',*,*,#424,.F.);
#385=ORIENTED_EDGE('',*,*,#415,.F.);
#386=ORIENTED_EDGE('',*,*,#435,.T.);
#387=ORIENTED_EDGE('',*,*,#435,.F.);
#388=ORIENTED_EDGE('',*,*,#436,.T.);
#389=ORIENTED_EDGE('',*,*,#436,.F.);
#390=ORIENTED_EDGE('',*,*,#430,.F.);
#391=VERTEX_POINT('',#602);
#392=VERTEX_POINT('',#604);
#393=VERTEX_POINT('',#607);
#394=VERTEX_POINT('',#609);
#395=VERTEX_POINT('',#612);
#396=VERTEX_POINT('',#614);
#397=VERTEX_POINT('',#617);
#398=VERTEX_POINT('',#620);
#399=VERTEX_POINT('',#623);
#400=VERTEX_POINT('',#626);
#401=VERTEX_POINT('',#628);
#402=VERTEX_POINT('',#634);
#403=VERTEX_POINT('',#637);
#404=VERTEX_POINT('',#640);
#405=VERTEX_POINT('',#643);
#406=VERTEX_POINT('',#646);
#407=VERTEX_POINT('',#648);
#408=VERTEX_POINT('',#651);
#409=VERTEX_POINT('',#653);
#410=VERTEX_POINT('',#656);
#411=VERTEX_POINT('',#662);
#412=VERTEX_POINT('',#663);
#413=VERTEX_POINT('',#666);
#414=VERTEX_POINT('',#669);
#415=EDGE_CURVE('',#391,#391,#437,.T.);
#416=EDGE_CURVE('',#392,#392,#438,.T.);
#417=EDGE_CURVE('',#393,#393,#439,.T.);
#418=EDGE_CURVE('',#394,#394,#440,.T.);
#419=EDGE_CURVE('',#395,#395,#441,.T.);
#420=EDGE_CURVE('',#396,#396,#442,.T.);
#421=EDGE_CURVE('',#397,#397,#443,.T.);
#422=EDGE_CURVE('',#398,#398,#444,.T.);
#423=EDGE_CURVE('',#399,#399,#445,.T.);
#424=EDGE_CURVE('',#400,#400,#446,.T.);
#425=EDGE_CURVE('',#401,#401,#447,.T.);
#426=EDGE_CURVE('',#402,#402,#448,.T.);
#427=EDGE_CURVE('',#403,#403,#449,.T.);
#428=EDGE_CURVE('',#404,#404,#450,.T.);
#429=EDGE_CURVE('',#405,#405,#451,.T.);
#430=EDGE_CURVE('',#406,#406,#452,.T.);
#431=EDGE_CURVE('',#407,#407,#453,.T.);
#432=EDGE_CURVE('',#408,#408,#454,.T.);
#433=EDGE_CURVE('',#409,#409,#455,.T.);
#434=EDGE_CURVE('',#410,#410,#456,.T.);
#435=EDGE_CURVE('',#411,#411,#457,.T.);
#436=EDGE_CURVE('',#413,#413,#458,.T.);
#437=CIRCLE('',#460,14.);
#438=CIRCLE('',#461,9.49907116054874);
#439=CIRCLE('',#463,15.042543867133);
#440=CIRCLE('',#464,16.257456132867);
#441=CIRCLE('',#466,16.8);
#442=CIRCLE('',#467,16.8);
#443=CIRCLE('',#469,11.4412761972524);
#444=CIRCLE('',#471,4.88836205484511);
#445=CIRCLE('',#473,4.28899150537965);
#446=CIRCLE('',#475,14.5);
#447=CIRCLE('',#476,14.5);
#448=CIRCLE('',#481,8.803527618041);
#449=CIRCLE('',#483,8.29999999999999);
#450=CIRCLE('',#485,8.29999999999999);
#451=CIRCLE('',#487,8.49999999999999);
#452=CIRCLE('',#489,3.6547);
#453=CIRCLE('',#490,7.);
#454=CIRCLE('',#492,8.);
#455=CIRCLE('',#493,8.);
#456=CIRCLE('',#495,8.49999999999999);
#457=CIRCLE('',#500,2.5);
#458=CIRCLE('',#502,2.5);
#459=AXIS2_PLACEMENT_3D('',#600,#506,#507);
#460=AXIS2_PLACEMENT_3D('',#601,#508,#509);
#461=AXIS2_PLACEMENT_3D('',#603,#510,#511);
#462=AXIS2_PLACEMENT_3D('',#605,#512,#513);
#463=AXIS2_PLACEMENT_3D('',#606,#514,#515);
#464=AXIS2_PLACEMENT_3D('',#608,#516,#517);
#465=AXIS2_PLACEMENT_3D('',#610,#518,#519);
#466=AXIS2_PLACEMENT_3D('',#611,#520,#521);
#467=AXIS2_PLACEMENT_3D('',#613,#522,#523);
#468=AXIS2_PLACEMENT_3D('',#615,#524,#525);
#469=AXIS2_PLACEMENT_3D('',#616,#526,#527);
#470=AXIS2_PLACEMENT_3D('',#618,#528,#529);
#471=AXIS2_PLACEMENT_3D('',#619,#530,#531);
#472=AXIS2_PLACEMENT_3D('',#621,#532,#533);
#473=AXIS2_PLACEMENT_3D('',#622,#534,#535);
#474=AXIS2_PLACEMENT_3D('',#624,#536,#537);
#475=AXIS2_PLACEMENT_3D('',#625,#538,#539);
#476=AXIS2_PLACEMENT_3D('',#627,#540,#541);
#477=AXIS2_PLACEMENT_3D('',#629,#542,#543);
#478=AXIS2_PLACEMENT_3D('',#630,#544,#545);
#479=AXIS2_PLACEMENT_3D('',#631,#546,#547);
#480=AXIS2_PLACEMENT_3D('',#632,#548,#549);
#481=AXIS2_PLACEMENT_3D('',#633,#550,#551);
#482=AXIS2_PLACEMENT_3D('',#635,#552,#553);
#483=AXIS2_PLACEMENT_3D('',#636,#554,#555);
#484=AXIS2_PLACEMENT_3D('',#638,#556,#557);
#485=AXIS2_PLACEMENT_3D('',#639,#558,#559);
#486=AXIS2_PLACEMENT_3D('',#641,#560,#561);
#487=AXIS2_PLACEMENT_3D('',#642,#562,#563);
#488=AXIS2_PLACEMENT_3D('',#644,#564,#565);
#489=AXIS2_PLACEMENT_3D('',#645,#566,#567);
#490=AXIS2_PLACEMENT_3D('',#647,#568,#569);
#491=AXIS2_PLACEMENT_3D('',#649,#570,#571);
#492=AXIS2_PLACEMENT_3D('',#650,#572,#573);
#493=AXIS2_PLACEMENT_3D('',#652,#574,#575);
#494=AXIS2_PLACEMENT_3D('',#654,#576,#577);
#495=AXIS2_PLACEMENT_3D('',#655,#578,#579);
#496=AXIS2_PLACEMENT_3D('',#657,#580,#581);
#497=AXIS2_PLACEMENT_3D('',#658,#582,#583);
#498=AXIS2_PLACEMENT_3D('',#659,#584,#585);
#499=AXIS2_PLACEMENT_3D('',#660,#586,#587);
#500=AXIS2_PLACEMENT_3D('',#661,#588,#589);
#501=AXIS2_PLACEMENT_3D('',#664,#590,#591);
#502=AXIS2_PLACEMENT_3D('',#665,#592,#593);
#503=AXIS2_PLACEMENT_3D('',#667,#594,#595);
#504=AXIS2_PLACEMENT_3D('',#668,#596,#597);
#505=AXIS2_PLACEMENT_3D('',#670,#598,#599);
#506=DIRECTION('',(0.,0.,1.));
#507=DIRECTION('',(1.,0.,0.));
#508=DIRECTION('',(0.,0.,1.));
#509=DIRECTION('',(1.,0.,0.));
#510=DIRECTION('',(0.,0.,-1.));
#511=DIRECTION('',(-1.,0.,0.));
#512=DIRECTION('',(0.,0.,1.));
#513=DIRECTION('',(1.,0.,0.));
#514=DIRECTION('',(0.,0.,-1.));
#515=DIRECTION('',(-1.,0.,0.));
#516=DIRECTION('',(0.,0.,1.));
#517=DIRECTION('',(1.,0.,0.));
#518=DIRECTION('',(0.,0.,-1.));
#519=DIRECTION('',(-1.,0.,-2.91261538445025E-17));
#520=DIRECTION('',(0.,0.,-1.));
#521=DIRECTION('',(-1.,0.,0.));
#522=DIRECTION('',(0.,0.,1.));
#523=DIRECTION('',(1.,0.,0.));
#524=DIRECTION('',(0.,0.,1.));
#525=DIRECTION('',(1.,0.,0.));
#526=DIRECTION('',(0.,0.,1.));
#527=DIRECTION('',(1.,0.,0.));
#528=DIRECTION('',(0.,0.,1.));
#529=DIRECTION('',(1.,0.,0.));
#530=DIRECTION('',(0.,0.,1.));
#531=DIRECTION('',(-1.,0.,0.));
#532=DIRECTION('',(0.,0.,-1.));
#533=DIRECTION('',(-1.,0.,1.95341676407657E-17));
#534=DIRECTION('',(0.,0.,-1.));
#535=DIRECTION('',(-1.,0.,0.));
#536=DIRECTION('',(0.,0.,-1.));
#537=DIRECTION('',(-1.,0.,0.));
#538=DIRECTION('',(0.,0.,-1.));
#539=DIRECTION('',(1.,0.,0.));
#540=DIRECTION('',(0.,0.,1.));
#541=DIRECTION('',(1.,0.,0.));
#542=DIRECTION('',(0.,0.,1.));
#543=DIRECTION('',(1.,0.,0.));
#544=DIRECTION('',(0.,0.,-1.));
#545=DIRECTION('',(-1.,0.,0.));
#546=DIRECTION('',(0.,0.,1.));
#547=DIRECTION('',(1.,0.,0.));
#548=DIRECTION('',(0.,0.,-1.));
#549=DIRECTION('',(-1.,0.,0.));
#550=DIRECTION('',(0.,0.,1.));
#551=DIRECTION('',(-1.,0.,0.));
#552=DIRECTION('',(0.,0.,1.));
#553=DIRECTION('',(1.,0.,-8.66386939946228E-19));
#554=DIRECTION('',(0.,0.,1.));
#555=DIRECTION('',(-1.,0.,0.));
#556=DIRECTION('',(0.,0.,-1.));
#557=DIRECTION('',(-1.,0.,0.));
#558=DIRECTION('',(0.,0.,1.));
#559=DIRECTION('',(-1.,0.,0.));
#560=DIRECTION('',(0.,0.,-1.));
#561=DIRECTION('',(-1.,0.,0.));
#562=DIRECTION('',(0.,0.,-1.));
#563=DIRECTION('',(-1.,0.,0.));
#564=DIRECTION('',(0.,0.,-1.));
#565=DIRECTION('',(-1.,0.,0.));
#566=DIRECTION('',(0.,0.,-1.));
#567=DIRECTION('',(-1.,0.,0.));
#568=DIRECTION('',(0.,0.,1.));
#569=DIRECTION('',(-1.,0.,0.));
#570=DIRECTION('',(0.,0.,-1.));
#571=DIRECTION('',(-1.,0.,0.));
#572=DIRECTION('',(0.,0.,-1.));
#573=DIRECTION('',(-1.,0.,0.));
#574=DIRECTION('',(0.,0.,-1.));
#575=DIRECTION('',(-1.,0.,0.));
#576=DIRECTION('',(0.,0.,-1.));
#577=DIRECTION('',(-1.,0.,0.));
#578=DIRECTION('',(0.,0.,-1.));
#579=DIRECTION('',(-1.,0.,0.));
#580=DIRECTION('',(0.,0.,-1.));
#581=DIRECTION('',(-1.,0.,0.));
#582=DIRECTION('',(0.,0.,-1.));
#583=DIRECTION('',(-1.,0.,2.06514699521049E-17));
#584=DIRECTION('',(0.,0.,-1.));
#585=DIRECTION('',(-1.,0.,-4.81628729076357E-17));
#586=DIRECTION('',(0.,0.,-1.));
#587=DIRECTION('',(-1.,0.,0.));
#588=DIRECTION('',(0.,0.,1.));
#589=DIRECTION('',(-1.,0.,0.));
#590=DIRECTION('',(0.,0.,1.));
#591=DIRECTION('',(1.,0.,-8.00079637175078E-18));
#592=DIRECTION('',(0.,0.,1.));
#593=DIRECTION('',(-1.,0.,0.));
#594=DIRECTION('',(0.,0.,-1.));
#595=DIRECTION('',(-1.,0.,0.));
#596=DIRECTION('',(0.,0.,1.));
#597=DIRECTION('',(1.,0.,-1.55257916083938E-16));
#598=DIRECTION('',(0.,0.,-1.));
#599=DIRECTION('',(-1.,0.,0.));
#600=CARTESIAN_POINT('',(0.,0.,0.));
#601=CARTESIAN_POINT('',(0.,0.,0.));
#602=CARTESIAN_POINT('',(14.,0.,0.));
#603=CARTESIAN_POINT('',(0.,0.,3.24162995008856E-15));
#604=CARTESIAN_POINT('',(-9.49907116054874,0.,3.24162995008856E-15));
#605=CARTESIAN_POINT('',(0.,0.,0.));
#606=CARTESIAN_POINT('',(0.,0.,-33.4396426844216));
#607=CARTESIAN_POINT('',(-15.042543867133,0.,-33.4396426844216));
#608=CARTESIAN_POINT('',(0.,0.,-35.1747172150961));
#609=CARTESIAN_POINT('',(16.257456132867,0.,-35.1747172150961));
#610=CARTESIAN_POINT('',(0.,0.,-32.6648097420055));
#611=CARTESIAN_POINT('',(0.,0.,-36.8954465241493));
#612=CARTESIAN_POINT('',(-16.8,0.,-36.8954465241493));
#613=CARTESIAN_POINT('',(0.,0.,-37.1495501575123));
#614=CARTESIAN_POINT('',(16.8,0.,-37.1495501575123));
#615=CARTESIAN_POINT('',(0.,0.,0.));
#616=CARTESIAN_POINT('',(0.,0.,-40.7640550018718));
#617=CARTESIAN_POINT('',(11.4412761972524,0.,-40.7640550018718));
#618=CARTESIAN_POINT('',(0.,0.,-37.1495501575123));
#619=CARTESIAN_POINT('',(0.,0.,-38.1165058326931));
#620=CARTESIAN_POINT('',(-4.88836205484511,0.,-38.1165058326931));
#621=CARTESIAN_POINT('',(0.,0.,-40.7640550018718));
#622=CARTESIAN_POINT('',(0.,0.,-38.));
#623=CARTESIAN_POINT('',(-4.28899150537965,0.,-38.));
#624=CARTESIAN_POINT('',(4.6,0.,-38.));
#625=CARTESIAN_POINT('',(0.,0.,-0.5));
#626=CARTESIAN_POINT('',(14.5,0.,-0.5));
#627=CARTESIAN_POINT('',(0.,0.,-31.7189133753685));
#628=CARTESIAN_POINT('',(14.5,0.,-31.7189133753685));
#629=CARTESIAN_POINT('',(0.,0.,0.));
#630=CARTESIAN_POINT('',(0.,0.,-39.6));
#631=CARTESIAN_POINT('',(0.,0.,-31.7189133753685));
#632=CARTESIAN_POINT('',(0.,0.,-36.8954465241493));
#633=CARTESIAN_POINT('',(0.,0.,-0.186370330515627));
#634=CARTESIAN_POINT('',(-8.803527618041,0.,-0.186370330515627));
#635=CARTESIAN_POINT('',(0.,0.,3.24162995008856E-15));
#636=CARTESIAN_POINT('',(0.,0.,0.2));
#637=CARTESIAN_POINT('',(-8.29999999999999,0.,0.2));
#638=CARTESIAN_POINT('',(0.,0.,0.200000000000001));
#639=CARTESIAN_POINT('',(0.,0.,1.15358983848622));
#640=CARTESIAN_POINT('',(-8.29999999999999,0.,1.15358983848622));
#641=CARTESIAN_POINT('',(0.,0.,0.));
#642=CARTESIAN_POINT('',(0.,0.,1.5));
#643=CARTESIAN_POINT('',(-8.49999999999999,0.,1.5));
#644=CARTESIAN_POINT('',(0.,0.,1.15358983848622));
#645=CARTESIAN_POINT('',(0.,0.,23.));
#646=CARTESIAN_POINT('',(-3.6547,0.,23.));
#647=CARTESIAN_POINT('',(0.,0.,23.));
#648=CARTESIAN_POINT('',(-7.,0.,23.));
#649=CARTESIAN_POINT('',(0.,0.,23.));
#650=CARTESIAN_POINT('',(0.,0.,22.));
#651=CARTESIAN_POINT('',(-8.,0.,22.));
#652=CARTESIAN_POINT('',(0.,0.,6.));
#653=CARTESIAN_POINT('',(-8.,0.,6.));
#654=CARTESIAN_POINT('',(0.,0.,-42.));
#655=CARTESIAN_POINT('',(0.,0.,5.5));
#656=CARTESIAN_POINT('',(-8.49999999999999,0.,5.5));
#657=CARTESIAN_POINT('',(0.,0.,-42.));
#658=CARTESIAN_POINT('',(0.,0.,22.));
#659=CARTESIAN_POINT('',(0.,0.,5.5));
#660=CARTESIAN_POINT('',(0.,0.,0.));
#661=CARTESIAN_POINT('',(0.,0.,-19.));
#662=CARTESIAN_POINT('',(-2.5,0.,-19.));
#663=CARTESIAN_POINT('',(0.,0.,-20.4433756729741));
#664=CARTESIAN_POINT('',(0.,0.,-19.));
#665=CARTESIAN_POINT('',(0.,0.,21.0000009325002));
#666=CARTESIAN_POINT('',(-2.5,0.,21.0000009325002));
#667=CARTESIAN_POINT('',(0.,0.,-19.));
#668=CARTESIAN_POINT('',(0.,0.,23.));
#669=CARTESIAN_POINT('',(-17.475,0.,-37.));
#670=CARTESIAN_POINT('',(0.,0.,-37.));
#671=MECHANICAL_DESIGN_GEOMETRIC_PRESENTATION_REPRESENTATION('',(#49,#23,
#24,#25,#26,#27,#28,#29,#30,#31,#32,#33,#34,#35,#36,#37,#38,#39,#40,#41,
#42,#43,#44,#45,#50),#672);
#672=(
GEOMETRIC_REPRESENTATION_CONTEXT(3)
GLOBAL_UNCERTAINTY_ASSIGNED_CONTEXT((#673))
GLOBAL_UNIT_ASSIGNED_CONTEXT((#679,#675,#674))
REPRESENTATION_CONTEXT('ax_step_export_ax_temp_1',
'TOP_LEVEL_ASSEMBLY_PART')
);
#673=UNCERTAINTY_MEASURE_WITH_UNIT(LENGTH_MEASURE(2.E-5),#679,
'DISTANCE_ACCURACY_VALUE','Maximum Tolerance applied to model');
#674=(
NAMED_UNIT(*)
SI_UNIT($,.STERADIAN.)
SOLID_ANGLE_UNIT()
);
#675=(
CONVERSION_BASED_UNIT('DEGREE',#677)
NAMED_UNIT(#676)
PLANE_ANGLE_UNIT()
);
#676=DIMENSIONAL_EXPONENTS(0.,0.,0.,0.,0.,0.,0.);
#677=PLANE_ANGLE_MEASURE_WITH_UNIT(PLANE_ANGLE_MEASURE(0.0174532925),#678);
#678=(
NAMED_UNIT(*)
PLANE_ANGLE_UNIT()
SI_UNIT($,.RADIAN.)
);
#679=(
LENGTH_UNIT()
NAMED_UNIT(*)
SI_UNIT(.MILLI.,.METRE.)
);
ENDSEC;
END-ISO-10303-21;
