ISO-10303-21;
HEADER;
/* Generated by software containing ST-Developer
 * from STEP Tools, Inc. (www.steptools.com) 
 */
/* OPTION: using custom schema-name function */

FILE_DESCRIPTION(
/* description */ (''),
/* implementation_level */ '2;1');

FILE_NAME(
/* name */ '32N3R045A25_SOD05_C_115009729dni000_00_SIM.stp',
/* time_stamp */ '2019-12-19T12:14:52+01:00',
/* author */ (''),
/* organization */ (''),
/* preprocessor_version */ 'ST-DEVELOPER v16.7',
/* originating_system */ 'SIEMENS PLM Software NX 12.0',
/* authorisation */ '');

FILE_SCHEMA (('AUTOMOTIVE_DESIGN { 1 0 10303 214 3 1 1 1 }'));
ENDSEC;

DATA;
#10=PROPERTY_DEFINITION_REPRESENTATION(#14,#12);
#11=PROPERTY_DEFINITION_REPRESENTATION(#15,#13);
#12=REPRESENTATION('',(#16),#620);
#13=REPRESENTATION('',(#17),#620);
#14=PROPERTY_DEFINITION('pmi validation property','',#21);
#15=PROPERTY_DEFINITION('pmi validation property','',#21);
#16=VALUE_REPRESENTATION_ITEM('number of annotations',COUNT_MEASURE(0.));
#17=VALUE_REPRESENTATION_ITEM('number of views',COUNT_MEASURE(0.));
#18=SHAPE_REPRESENTATION_RELATIONSHIP('None',
'relationship between wq7020448C39qzvz-None and wq7020448C39qzvz-None',
#30,#19);
#19=ADVANCED_BREP_SHAPE_REPRESENTATION('wq7020448C39qzvz-None',(#68,#69),
#620);
#20=SHAPE_DEFINITION_REPRESENTATION(#21,#30);
#21=PRODUCT_DEFINITION_SHAPE('','',#22);
#22=PRODUCT_DEFINITION(' ','',#24,#23);
#23=PRODUCT_DEFINITION_CONTEXT('part definition',#29,'design');
#24=PRODUCT_DEFINITION_FORMATION_WITH_SPECIFIED_SOURCE(' ',' ',#26,
 .NOT_KNOWN.);
#25=PRODUCT_RELATED_PRODUCT_CATEGORY('part','',(#26));
#26=PRODUCT('wq7020448C39qzvz','wq7020448C39qzvz',' ',(#27));
#27=PRODUCT_CONTEXT(' ',#29,'mechanical');
#28=APPLICATION_PROTOCOL_DEFINITION('international standard',
'automotive_design',2010,#29);
#29=APPLICATION_CONTEXT(
'core data for automotive mechanical design processes');
#30=SHAPE_REPRESENTATION('wq7020448C39qzvz-None',(#338),#620);
#31=VERTEX_LOOP('',#288);
#32=(
BOUNDED_SURFACE()
B_SPLINE_SURFACE(3,3,((#582,#583,#584,#585,#586,#587,#588),(#589,#590,#591,
#592,#593,#594,#595),(#596,#597,#598,#599,#600,#601,#602),(#603,#604,#605,
#606,#607,#608,#609)),.UNSPECIFIED.,.F.,.T.,.F.)
B_SPLINE_SURFACE_WITH_KNOTS((4,4),(1,3,3,3,1),(0.,1.),(-0.5,0.,0.5,1.,1.5),
 .UNSPECIFIED.)
GEOMETRIC_REPRESENTATION_ITEM()
RATIONAL_B_SPLINE_SURFACE(((1.,0.333333333333333,0.333333333333333,1.,0.333333333333333,
0.333333333333333,1.),(0.984197338079955,0.328065779359985,0.328065779359985,
0.984197338079955,0.328065779359985,0.328065779359985,0.984197338079955),
(0.984197338079955,0.328065779359985,0.328065779359985,0.984197338079955,
0.328065779359985,0.328065779359985,0.984197338079955),(1.,0.333333333333333,
0.333333333333333,1.,0.333333333333333,0.333333333333333,1.)))
REPRESENTATION_ITEM('')
SURFACE()
);
#33=TOROIDAL_SURFACE('',#362,9.8584457438656,4.77885575414217);
#34=TOROIDAL_SURFACE('',#366,9.8584457438656,4.77885575414216);
#35=TOROIDAL_SURFACE('',#368,22.9713896593588,9.99999999999999);
#36=TOROIDAL_SURFACE('',#371,13.,1.);
#37=TOROIDAL_SURFACE('',#372,22.,10.);
#38=CONICAL_SURFACE('',#360,4.00000000000001,64.9999999999999);
#39=CONICAL_SURFACE('',#370,12.9774813891678,2.);
#40=CONICAL_SURFACE('',#373,12.49675,45.);
#41=CONICAL_SURFACE('',#375,4.,60.);
#42=CONICAL_SURFACE('',#378,5.1545,30.);
#43=FACE_OUTER_BOUND('',#191,.T.);
#44=PLANE('',#355);
#45=PLANE('',#357);
#46=PLANE('',#364);
#47=CYLINDRICAL_SURFACE('',#349,12.);
#48=CYLINDRICAL_SURFACE('',#352,12.49675);
#49=CYLINDRICAL_SURFACE('',#377,4.);
#50=PRESENTATION_LAYER_ASSIGNMENT('96','Layer 96',(#68));
#51=PRESENTATION_LAYER_ASSIGNMENT('14','Layer 14',(#69));
#52=STYLED_ITEM('',(#54),#68);
#53=STYLED_ITEM('',(#55),#69);
#54=PRESENTATION_STYLE_ASSIGNMENT((#56));
#55=PRESENTATION_STYLE_ASSIGNMENT((#57));
#56=SURFACE_STYLE_USAGE(.BOTH.,#58);
#57=SURFACE_STYLE_USAGE(.BOTH.,#59);
#58=SURFACE_SIDE_STYLE('',(#60));
#59=SURFACE_SIDE_STYLE('',(#61));
#60=SURFACE_STYLE_FILL_AREA(#62);
#61=SURFACE_STYLE_FILL_AREA(#63);
#62=FILL_AREA_STYLE('',(#64));
#63=FILL_AREA_STYLE('',(#65));
#64=FILL_AREA_STYLE_COLOUR('',#66);
#65=FILL_AREA_STYLE_COLOUR('',#67);
#66=COLOUR_RGB('Light Gray',0.8,0.8,0.8);
#67=COLOUR_RGB('Silver Gray',0.6,0.6,0.6);
#68=MANIFOLD_SOLID_BREP('',#70);
#69=MANIFOLD_SOLID_BREP('',#71);
#70=CLOSED_SHELL('',(#72,#73,#74,#75,#76,#77,#78,#79));
#71=CLOSED_SHELL('',(#80,#81,#82,#83,#84,#85,#86,#87,#88,#89,#90,#91,#92,
#93,#94,#95,#96));
#72=ADVANCED_FACE('',(#121,#122),#97,.T.);
#73=ADVANCED_FACE('',(#123,#124),#98,.T.);
#74=ADVANCED_FACE('',(#125,#126),#99,.T.);
#75=ADVANCED_FACE('',(#127,#128),#100,.T.);
#76=ADVANCED_FACE('',(#129,#130),#101,.T.);
#77=ADVANCED_FACE('',(#131,#132),#102,.T.);
#78=ADVANCED_FACE('',(#133,#134),#103,.T.);
#79=ADVANCED_FACE('',(#135,#136),#104,.T.);
#80=ADVANCED_FACE('',(#137,#138),#47,.T.);
#81=ADVANCED_FACE('',(#139,#140),#48,.T.);
#82=ADVANCED_FACE('',(#141,#142),#44,.T.);
#83=ADVANCED_FACE('',(#43),#45,.T.);
#84=ADVANCED_FACE('',(#143,#144),#38,.F.);
#85=ADVANCED_FACE('',(#145,#146),#33,.T.);
#86=ADVANCED_FACE('',(#147,#148),#46,.T.);
#87=ADVANCED_FACE('',(#149,#150),#34,.T.);
#88=ADVANCED_FACE('',(#151,#152),#35,.F.);
#89=ADVANCED_FACE('',(#153,#154),#39,.T.);
#90=ADVANCED_FACE('',(#155,#156),#36,.F.);
#91=ADVANCED_FACE('',(#157,#158),#37,.F.);
#92=ADVANCED_FACE('',(#159,#160),#32,.T.);
#93=ADVANCED_FACE('',(#161,#162),#40,.T.);
#94=ADVANCED_FACE('',(#163,#164),#41,.F.);
#95=ADVANCED_FACE('',(#165,#166),#49,.F.);
#96=ADVANCED_FACE('',(#167,#168),#42,.F.);
#97=SURFACE_OF_REVOLUTION('',#113,#105);
#98=SURFACE_OF_REVOLUTION('',#114,#106);
#99=SURFACE_OF_REVOLUTION('',#115,#107);
#100=SURFACE_OF_REVOLUTION('',#116,#108);
#101=SURFACE_OF_REVOLUTION('',#117,#109);
#102=SURFACE_OF_REVOLUTION('',#118,#110);
#103=SURFACE_OF_REVOLUTION('',#119,#111);
#104=SURFACE_OF_REVOLUTION('',#120,#112);
#105=AXIS1_PLACEMENT('',#480,#385);
#106=AXIS1_PLACEMENT('',#489,#388);
#107=AXIS1_PLACEMENT('',#498,#391);
#108=AXIS1_PLACEMENT('',#507,#394);
#109=AXIS1_PLACEMENT('',#516,#397);
#110=AXIS1_PLACEMENT('',#525,#400);
#111=AXIS1_PLACEMENT('',#534,#403);
#112=AXIS1_PLACEMENT('',#541,#404);
#113=B_SPLINE_CURVE_WITH_KNOTS('',5,(#474,#475,#476,#477,#478,#479),
 .UNSPECIFIED.,.F.,.F.,(6,6),(0.,1.),.UNSPECIFIED.);
#114=B_SPLINE_CURVE_WITH_KNOTS('',5,(#483,#484,#485,#486,#487,#488),
 .UNSPECIFIED.,.F.,.F.,(6,6),(0.,1.),.UNSPECIFIED.);
#115=B_SPLINE_CURVE_WITH_KNOTS('',5,(#492,#493,#494,#495,#496,#497),
 .UNSPECIFIED.,.F.,.F.,(6,6),(0.,1.),.UNSPECIFIED.);
#116=B_SPLINE_CURVE_WITH_KNOTS('',5,(#501,#502,#503,#504,#505,#506),
 .UNSPECIFIED.,.F.,.F.,(6,6),(0.,1.),.UNSPECIFIED.);
#117=B_SPLINE_CURVE_WITH_KNOTS('',5,(#510,#511,#512,#513,#514,#515),
 .UNSPECIFIED.,.F.,.F.,(6,6),(0.,1.),.UNSPECIFIED.);
#118=B_SPLINE_CURVE_WITH_KNOTS('',5,(#519,#520,#521,#522,#523,#524),
 .UNSPECIFIED.,.F.,.F.,(6,6),(0.,1.),.UNSPECIFIED.);
#119=B_SPLINE_CURVE_WITH_KNOTS('',5,(#528,#529,#530,#531,#532,#533),
 .UNSPECIFIED.,.F.,.F.,(6,6),(0.,1.),.UNSPECIFIED.);
#120=B_SPLINE_CURVE_WITH_KNOTS('',5,(#535,#536,#537,#538,#539,#540),
 .UNSPECIFIED.,.F.,.F.,(6,6),(0.,1.),.UNSPECIFIED.);
#121=FACE_BOUND('',#169,.T.);
#122=FACE_BOUND('',#170,.T.);
#123=FACE_BOUND('',#171,.T.);
#124=FACE_BOUND('',#172,.T.);
#125=FACE_BOUND('',#173,.T.);
#126=FACE_BOUND('',#174,.T.);
#127=FACE_BOUND('',#175,.T.);
#128=FACE_BOUND('',#176,.T.);
#129=FACE_BOUND('',#177,.T.);
#130=FACE_BOUND('',#178,.T.);
#131=FACE_BOUND('',#179,.T.);
#132=FACE_BOUND('',#180,.T.);
#133=FACE_BOUND('',#181,.T.);
#134=FACE_BOUND('',#182,.T.);
#135=FACE_BOUND('',#183,.T.);
#136=FACE_BOUND('',#184,.T.);
#137=FACE_BOUND('',#185,.T.);
#138=FACE_BOUND('',#186,.T.);
#139=FACE_BOUND('',#187,.T.);
#140=FACE_BOUND('',#188,.T.);
#141=FACE_BOUND('',#189,.T.);
#142=FACE_BOUND('',#190,.T.);
#143=FACE_BOUND('',#192,.T.);
#144=FACE_BOUND('',#193,.T.);
#145=FACE_BOUND('',#194,.T.);
#146=FACE_BOUND('',#195,.T.);
#147=FACE_BOUND('',#196,.T.);
#148=FACE_BOUND('',#197,.T.);
#149=FACE_BOUND('',#198,.T.);
#150=FACE_BOUND('',#199,.T.);
#151=FACE_BOUND('',#200,.T.);
#152=FACE_BOUND('',#201,.T.);
#153=FACE_BOUND('',#202,.T.);
#154=FACE_BOUND('',#203,.T.);
#155=FACE_BOUND('',#204,.T.);
#156=FACE_BOUND('',#205,.T.);
#157=FACE_BOUND('',#206,.T.);
#158=FACE_BOUND('',#207,.T.);
#159=FACE_BOUND('',#208,.T.);
#160=FACE_BOUND('',#209,.T.);
#161=FACE_BOUND('',#210,.T.);
#162=FACE_BOUND('',#211,.T.);
#163=FACE_BOUND('',#212,.T.);
#164=FACE_BOUND('',#31,.T.);
#165=FACE_BOUND('',#213,.T.);
#166=FACE_BOUND('',#214,.T.);
#167=FACE_BOUND('',#215,.T.);
#168=FACE_BOUND('',#216,.T.);
#169=EDGE_LOOP('',(#217));
#170=EDGE_LOOP('',(#218));
#171=EDGE_LOOP('',(#219));
#172=EDGE_LOOP('',(#220));
#173=EDGE_LOOP('',(#221));
#174=EDGE_LOOP('',(#222));
#175=EDGE_LOOP('',(#223));
#176=EDGE_LOOP('',(#224));
#177=EDGE_LOOP('',(#225));
#178=EDGE_LOOP('',(#226));
#179=EDGE_LOOP('',(#227));
#180=EDGE_LOOP('',(#228));
#181=EDGE_LOOP('',(#229));
#182=EDGE_LOOP('',(#230));
#183=EDGE_LOOP('',(#231));
#184=EDGE_LOOP('',(#232));
#185=EDGE_LOOP('',(#233));
#186=EDGE_LOOP('',(#234));
#187=EDGE_LOOP('',(#235));
#188=EDGE_LOOP('',(#236));
#189=EDGE_LOOP('',(#237));
#190=EDGE_LOOP('',(#238));
#191=EDGE_LOOP('',(#239));
#192=EDGE_LOOP('',(#240));
#193=EDGE_LOOP('',(#241));
#194=EDGE_LOOP('',(#242));
#195=EDGE_LOOP('',(#243));
#196=EDGE_LOOP('',(#244));
#197=EDGE_LOOP('',(#245));
#198=EDGE_LOOP('',(#246));
#199=EDGE_LOOP('',(#247));
#200=EDGE_LOOP('',(#248));
#201=EDGE_LOOP('',(#249));
#202=EDGE_LOOP('',(#250));
#203=EDGE_LOOP('',(#251));
#204=EDGE_LOOP('',(#252));
#205=EDGE_LOOP('',(#253));
#206=EDGE_LOOP('',(#254));
#207=EDGE_LOOP('',(#255));
#208=EDGE_LOOP('',(#256));
#209=EDGE_LOOP('',(#257));
#210=EDGE_LOOP('',(#258));
#211=EDGE_LOOP('',(#259));
#212=EDGE_LOOP('',(#260));
#213=EDGE_LOOP('',(#261));
#214=EDGE_LOOP('',(#262));
#215=EDGE_LOOP('',(#263));
#216=EDGE_LOOP('',(#264));
#217=ORIENTED_EDGE('',*,*,#290,.T.);
#218=ORIENTED_EDGE('',*,*,#291,.T.);
#219=ORIENTED_EDGE('',*,*,#292,.T.);
#220=ORIENTED_EDGE('',*,*,#290,.F.);
#221=ORIENTED_EDGE('',*,*,#293,.F.);
#222=ORIENTED_EDGE('',*,*,#292,.F.);
#223=ORIENTED_EDGE('',*,*,#294,.F.);
#224=ORIENTED_EDGE('',*,*,#293,.T.);
#225=ORIENTED_EDGE('',*,*,#295,.F.);
#226=ORIENTED_EDGE('',*,*,#294,.T.);
#227=ORIENTED_EDGE('',*,*,#296,.F.);
#228=ORIENTED_EDGE('',*,*,#295,.T.);
#229=ORIENTED_EDGE('',*,*,#297,.F.);
#230=ORIENTED_EDGE('',*,*,#296,.T.);
#231=ORIENTED_EDGE('',*,*,#291,.F.);
#232=ORIENTED_EDGE('',*,*,#297,.T.);
#233=ORIENTED_EDGE('',*,*,#298,.T.);
#234=ORIENTED_EDGE('',*,*,#299,.T.);
#235=ORIENTED_EDGE('',*,*,#300,.T.);
#236=ORIENTED_EDGE('',*,*,#301,.F.);
#237=ORIENTED_EDGE('',*,*,#302,.T.);
#238=ORIENTED_EDGE('',*,*,#303,.T.);
#239=ORIENTED_EDGE('',*,*,#304,.T.);
#240=ORIENTED_EDGE('',*,*,#305,.T.);
#241=ORIENTED_EDGE('',*,*,#306,.T.);
#242=ORIENTED_EDGE('',*,*,#307,.T.);
#243=ORIENTED_EDGE('',*,*,#306,.F.);
#244=ORIENTED_EDGE('',*,*,#308,.T.);
#245=ORIENTED_EDGE('',*,*,#307,.F.);
#246=ORIENTED_EDGE('',*,*,#309,.T.);
#247=ORIENTED_EDGE('',*,*,#308,.F.);
#248=ORIENTED_EDGE('',*,*,#310,.T.);
#249=ORIENTED_EDGE('',*,*,#309,.F.);
#250=ORIENTED_EDGE('',*,*,#311,.T.);
#251=ORIENTED_EDGE('',*,*,#310,.F.);
#252=ORIENTED_EDGE('',*,*,#301,.T.);
#253=ORIENTED_EDGE('',*,*,#298,.F.);
#254=ORIENTED_EDGE('',*,*,#299,.F.);
#255=ORIENTED_EDGE('',*,*,#311,.F.);
#256=ORIENTED_EDGE('',*,*,#305,.F.);
#257=ORIENTED_EDGE('',*,*,#304,.F.);
#258=ORIENTED_EDGE('',*,*,#303,.F.);
#259=ORIENTED_EDGE('',*,*,#300,.F.);
#260=ORIENTED_EDGE('',*,*,#312,.T.);
#261=ORIENTED_EDGE('',*,*,#312,.F.);
#262=ORIENTED_EDGE('',*,*,#313,.T.);
#263=ORIENTED_EDGE('',*,*,#313,.F.);
#264=ORIENTED_EDGE('',*,*,#302,.F.);
#265=VERTEX_POINT('',#471);
#266=VERTEX_POINT('',#473);
#267=VERTEX_POINT('',#482);
#268=VERTEX_POINT('',#491);
#269=VERTEX_POINT('',#500);
#270=VERTEX_POINT('',#509);
#271=VERTEX_POINT('',#518);
#272=VERTEX_POINT('',#527);
#273=VERTEX_POINT('',#543);
#274=VERTEX_POINT('',#545);
#275=VERTEX_POINT('',#548);
#276=VERTEX_POINT('',#550);
#277=VERTEX_POINT('',#553);
#278=VERTEX_POINT('',#555);
#279=VERTEX_POINT('',#558);
#280=VERTEX_POINT('',#561);
#281=VERTEX_POINT('',#563);
#282=VERTEX_POINT('',#566);
#283=VERTEX_POINT('',#569);
#284=VERTEX_POINT('',#572);
#285=VERTEX_POINT('',#575);
#286=VERTEX_POINT('',#578);
#287=VERTEX_POINT('',#612);
#288=VERTEX_POINT('',#613);
#289=VERTEX_POINT('',#616);
#290=EDGE_CURVE('',#265,#265,#314,.T.);
#291=EDGE_CURVE('',#266,#266,#315,.T.);
#292=EDGE_CURVE('',#267,#267,#316,.T.);
#293=EDGE_CURVE('',#268,#268,#317,.T.);
#294=EDGE_CURVE('',#269,#269,#318,.T.);
#295=EDGE_CURVE('',#270,#270,#319,.T.);
#296=EDGE_CURVE('',#271,#271,#320,.T.);
#297=EDGE_CURVE('',#272,#272,#321,.T.);
#298=EDGE_CURVE('',#273,#273,#322,.T.);
#299=EDGE_CURVE('',#274,#274,#323,.T.);
#300=EDGE_CURVE('',#275,#275,#324,.T.);
#301=EDGE_CURVE('',#276,#276,#325,.T.);
#302=EDGE_CURVE('',#277,#277,#326,.T.);
#303=EDGE_CURVE('',#278,#278,#327,.T.);
#304=EDGE_CURVE('',#279,#279,#328,.T.);
#305=EDGE_CURVE('',#280,#280,#329,.T.);
#306=EDGE_CURVE('',#281,#281,#330,.T.);
#307=EDGE_CURVE('',#282,#282,#331,.T.);
#308=EDGE_CURVE('',#283,#283,#332,.T.);
#309=EDGE_CURVE('',#284,#284,#333,.T.);
#310=EDGE_CURVE('',#285,#285,#334,.T.);
#311=EDGE_CURVE('',#286,#286,#335,.T.);
#312=EDGE_CURVE('',#287,#287,#336,.T.);
#313=EDGE_CURVE('',#289,#289,#337,.T.);
#314=CIRCLE('',#339,12.3625355305885);
#315=CIRCLE('',#340,15.9736901293715);
#316=CIRCLE('',#341,7.32887731036186);
#317=CIRCLE('',#342,3.84010727921773);
#318=CIRCLE('',#343,3.52429016065596);
#319=CIRCLE('',#344,7.01522225710062);
#320=CIRCLE('',#345,12.2438264262456);
#321=CIRCLE('',#346,15.9502687655901);
#322=CIRCLE('',#347,12.);
#323=CIRCLE('',#348,12.);
#324=CIRCLE('',#350,12.49675);
#325=CIRCLE('',#351,12.49675);
#326=CIRCLE('',#353,5.1545);
#327=CIRCLE('',#354,11.49675);
#328=CIRCLE('',#356,2.89152668678528);
#329=CIRCLE('',#358,5.00461799548879);
#330=CIRCLE('',#359,7.8388140319405);
#331=CIRCLE('',#361,8.94655122994091);
#332=CIRCLE('',#363,10.7703402577903);
#333=CIRCLE('',#365,14.0986161959478);
#334=CIRCLE('',#367,12.9774813891678);
#335=CIRCLE('',#369,12.006091729809);
#336=CIRCLE('',#374,4.);
#337=CIRCLE('',#376,4.);
#338=AXIS2_PLACEMENT_3D('',#469,#379,#380);
#339=AXIS2_PLACEMENT_3D('',#470,#381,#382);
#340=AXIS2_PLACEMENT_3D('',#472,#383,#384);
#341=AXIS2_PLACEMENT_3D('',#481,#386,#387);
#342=AXIS2_PLACEMENT_3D('',#490,#389,#390);
#343=AXIS2_PLACEMENT_3D('',#499,#392,#393);
#344=AXIS2_PLACEMENT_3D('',#508,#395,#396);
#345=AXIS2_PLACEMENT_3D('',#517,#398,#399);
#346=AXIS2_PLACEMENT_3D('',#526,#401,#402);
#347=AXIS2_PLACEMENT_3D('',#542,#405,#406);
#348=AXIS2_PLACEMENT_3D('',#544,#407,#408);
#349=AXIS2_PLACEMENT_3D('',#546,#409,#410);
#350=AXIS2_PLACEMENT_3D('',#547,#411,#412);
#351=AXIS2_PLACEMENT_3D('',#549,#413,#414);
#352=AXIS2_PLACEMENT_3D('',#551,#415,#416);
#353=AXIS2_PLACEMENT_3D('',#552,#417,#418);
#354=AXIS2_PLACEMENT_3D('',#554,#419,#420);
#355=AXIS2_PLACEMENT_3D('',#556,#421,#422);
#356=AXIS2_PLACEMENT_3D('',#557,#423,#424);
#357=AXIS2_PLACEMENT_3D('',#559,#425,#426);
#358=AXIS2_PLACEMENT_3D('',#560,#427,#428);
#359=AXIS2_PLACEMENT_3D('',#562,#429,#430);
#360=AXIS2_PLACEMENT_3D('',#564,#431,#432);
#361=AXIS2_PLACEMENT_3D('',#565,#433,#434);
#362=AXIS2_PLACEMENT_3D('',#567,#435,#436);
#363=AXIS2_PLACEMENT_3D('',#568,#437,#438);
#364=AXIS2_PLACEMENT_3D('',#570,#439,#440);
#365=AXIS2_PLACEMENT_3D('',#571,#441,#442);
#366=AXIS2_PLACEMENT_3D('',#573,#443,#444);
#367=AXIS2_PLACEMENT_3D('',#574,#445,#446);
#368=AXIS2_PLACEMENT_3D('',#576,#447,#448);
#369=AXIS2_PLACEMENT_3D('',#577,#449,#450);
#370=AXIS2_PLACEMENT_3D('',#579,#451,#452);
#371=AXIS2_PLACEMENT_3D('',#580,#453,#454);
#372=AXIS2_PLACEMENT_3D('',#581,#455,#456);
#373=AXIS2_PLACEMENT_3D('',#610,#457,#458);
#374=AXIS2_PLACEMENT_3D('',#611,#459,#460);
#375=AXIS2_PLACEMENT_3D('',#614,#461,#462);
#376=AXIS2_PLACEMENT_3D('',#615,#463,#464);
#377=AXIS2_PLACEMENT_3D('',#617,#465,#466);
#378=AXIS2_PLACEMENT_3D('',#618,#467,#468);
#379=DIRECTION('',(0.,0.,1.));
#380=DIRECTION('',(1.,0.,0.));
#381=DIRECTION('',(0.,0.,1.));
#382=DIRECTION('',(-1.,0.,0.));
#383=DIRECTION('',(0.,0.,-1.));
#384=DIRECTION('',(-1.,0.,0.));
#385=DIRECTION('',(0.,0.,-1.));
#386=DIRECTION('',(0.,0.,1.));
#387=DIRECTION('',(-1.,0.,0.));
#388=DIRECTION('',(0.,0.,-1.));
#389=DIRECTION('',(0.,0.,-1.));
#390=DIRECTION('',(-1.,0.,0.));
#391=DIRECTION('',(0.,0.,-1.));
#392=DIRECTION('',(0.,0.,-1.));
#393=DIRECTION('',(-1.,0.,0.));
#394=DIRECTION('',(0.,0.,-1.));
#395=DIRECTION('',(0.,0.,-1.));
#396=DIRECTION('',(-1.,0.,0.));
#397=DIRECTION('',(0.,0.,-1.));
#398=DIRECTION('',(0.,0.,-1.));
#399=DIRECTION('',(-1.,0.,0.));
#400=DIRECTION('',(0.,0.,-1.));
#401=DIRECTION('',(0.,0.,-1.));
#402=DIRECTION('',(-1.,0.,0.));
#403=DIRECTION('',(0.,0.,-1.));
#404=DIRECTION('',(0.,0.,-1.));
#405=DIRECTION('',(0.,0.,-1.));
#406=DIRECTION('',(1.,0.,0.));
#407=DIRECTION('',(0.,0.,1.));
#408=DIRECTION('',(-1.,0.,0.));
#409=DIRECTION('',(0.,0.,-1.));
#410=DIRECTION('',(-1.,0.,0.));
#411=DIRECTION('',(0.,0.,-1.));
#412=DIRECTION('',(1.,0.,0.));
#413=DIRECTION('',(0.,0.,-1.));
#414=DIRECTION('',(-1.,0.,0.));
#415=DIRECTION('',(0.,0.,-1.));
#416=DIRECTION('',(-1.,0.,0.));
#417=DIRECTION('',(0.,0.,-1.));
#418=DIRECTION('',(-1.,0.,0.));
#419=DIRECTION('',(0.,0.,1.));
#420=DIRECTION('',(1.,0.,0.));
#421=DIRECTION('',(0.,0.,1.));
#422=DIRECTION('',(1.,0.,0.));
#423=DIRECTION('',(0.,0.,-1.));
#424=DIRECTION('',(-1.,0.,0.));
#425=DIRECTION('',(0.,0.,-1.));
#426=DIRECTION('',(-1.,0.,0.));
#427=DIRECTION('',(0.,0.,1.));
#428=DIRECTION('',(-1.,0.,0.));
#429=DIRECTION('',(0.,0.,-1.));
#430=DIRECTION('',(-1.,0.,0.));
#431=DIRECTION('',(0.,0.,-1.));
#432=DIRECTION('',(-1.,0.,-1.61481767586338E-17));
#433=DIRECTION('',(0.,0.,-1.));
#434=DIRECTION('',(-1.,0.,0.));
#435=DIRECTION('',(0.,0.,-1.));
#436=DIRECTION('',(-1.,0.,0.));
#437=DIRECTION('',(0.,0.,-1.));
#438=DIRECTION('',(-1.,0.,0.));
#439=DIRECTION('',(0.,0.,-1.));
#440=DIRECTION('',(-1.,0.,0.));
#441=DIRECTION('',(0.,0.,-1.));
#442=DIRECTION('',(-1.,0.,0.));
#443=DIRECTION('',(0.,0.,-1.));
#444=DIRECTION('',(-1.,0.,0.));
#445=DIRECTION('',(0.,0.,-1.));
#446=DIRECTION('',(-1.,0.,0.));
#447=DIRECTION('',(0.,0.,-1.));
#448=DIRECTION('',(-1.,0.,0.));
#449=DIRECTION('',(0.,0.,-1.));
#450=DIRECTION('',(-1.,0.,0.));
#451=DIRECTION('',(0.,0.,-1.));
#452=DIRECTION('',(-1.,0.,-1.44867375661769E-16));
#453=DIRECTION('',(0.,0.,1.));
#454=DIRECTION('',(1.,0.,0.));
#455=DIRECTION('',(0.,0.,-1.));
#456=DIRECTION('',(-1.,0.,0.));
#457=DIRECTION('',(0.,0.,-1.));
#458=DIRECTION('',(-1.,0.,-4.11195032709422E-17));
#459=DIRECTION('',(0.,0.,1.));
#460=DIRECTION('',(-1.,0.,0.));
#461=DIRECTION('',(0.,0.,1.));
#462=DIRECTION('',(1.,0.,-7.99388344356613E-18));
#463=DIRECTION('',(0.,0.,1.));
#464=DIRECTION('',(-1.,0.,0.));
#465=DIRECTION('',(0.,0.,-1.));
#466=DIRECTION('',(-1.,0.,0.));
#467=DIRECTION('',(0.,0.,1.));
#468=DIRECTION('',(1.,0.,-7.14730000946829E-17));
#469=CARTESIAN_POINT('',(0.,0.,0.));
#470=CARTESIAN_POINT('',(0.,0.,-45.1556466869946));
#471=CARTESIAN_POINT('',(-12.3625355305885,0.,-45.1556466869946));
#472=CARTESIAN_POINT('',(0.,0.,-41.5156484108634));
#473=CARTESIAN_POINT('',(-15.9736901293715,0.,-41.5156484108634));
#474=CARTESIAN_POINT('',(15.9736901293715,0.,-41.5156484108634));
#475=CARTESIAN_POINT('',(15.2471264806322,1.85981508053486E-31,-42.2393401289513));
#476=CARTESIAN_POINT('',(14.5222081719292,8.08342616581825E-31,-42.9646848732697));
#477=CARTESIAN_POINT('',(13.7993460202798,2.81892564846231E-15,-43.6920752105431));
#478=CARTESIAN_POINT('',(13.0790654373211,2.81892564846231E-15,-44.4220304981706));
#479=CARTESIAN_POINT('',(12.3625355305885,2.81892564846231E-15,-45.1556466869946));
#480=CARTESIAN_POINT('',(0.,0.,0.));
#481=CARTESIAN_POINT('',(0.,0.,-45.0929199540425));
#482=CARTESIAN_POINT('',(-7.32887731036186,0.,-45.0929199540425));
#483=CARTESIAN_POINT('',(12.3625355305885,1.89735380184963E-15,-45.1556466869946));
#484=CARTESIAN_POINT('',(11.3558010093085,1.89735380184963E-15,-45.1433319836098));
#485=CARTESIAN_POINT('',(10.3490672752217,1.89735380184963E-15,-45.1309518282473));
#486=CARTESIAN_POINT('',(9.34233493295253,1.95156391047391E-15,-45.1184634834336));
#487=CARTESIAN_POINT('',(8.33560376232288,1.95156391047391E-15,-45.1058745709441));
#488=CARTESIAN_POINT('',(7.32887731036186,1.95156391047391E-15,-45.0929199540425));
#489=CARTESIAN_POINT('',(0.,0.,0.));
#490=CARTESIAN_POINT('',(0.,0.,-41.364212681447));
#491=CARTESIAN_POINT('',(-3.84010727921773,0.,-41.364212681447));
#492=CARTESIAN_POINT('',(7.32887731036185,2.16840434497101E-16,-45.0929199540425));
#493=CARTESIAN_POINT('',(6.61963535020438,2.16840434497101E-16,-44.3578730837893));
#494=CARTESIAN_POINT('',(5.91315097808893,2.16840434497101E-16,-43.6200134173238));
#495=CARTESIAN_POINT('',(5.21261070722957,-6.50521303491303E-16,-42.8771228155062));
#496=CARTESIAN_POINT('',(4.51466627281674,-6.50521303491303E-16,-42.1308942502942));
#497=CARTESIAN_POINT('',(3.84010727921773,-6.50521303491303E-16,-41.364212681447));
#498=CARTESIAN_POINT('',(0.,0.,0.));
#499=CARTESIAN_POINT('',(0.,0.,-36.1537510193754));
#500=CARTESIAN_POINT('',(-3.52429016065596,0.,-36.1537510193754));
#501=CARTESIAN_POINT('',(3.84010727921773,1.0842021724855E-16,-41.364212681447));
#502=CARTESIAN_POINT('',(3.76594359398905,1.0842021724855E-16,-40.3228209649339));
#503=CARTESIAN_POINT('',(3.69677877174627,1.0842021724855E-16,-39.2810737971667));
#504=CARTESIAN_POINT('',(3.63310368301726,-5.42101086242752E-16,-38.2389698131411));
#505=CARTESIAN_POINT('',(3.57544638250025,-5.42101086242752E-16,-37.1965196189373));
#506=CARTESIAN_POINT('',(3.52429016065596,-5.42101086242752E-16,-36.1537510193754));
#507=CARTESIAN_POINT('',(0.,0.,0.));
#508=CARTESIAN_POINT('',(0.,0.,-32.5137527432442));
#509=CARTESIAN_POINT('',(-7.01522225710062,0.,-32.5137527432442));
#510=CARTESIAN_POINT('',(3.52429016065596,9.21571846612679E-16,-36.1537510193754));
#511=CARTESIAN_POINT('',(4.1870106423237,9.21571846612679E-16,-35.3936340461224));
#512=CARTESIAN_POINT('',(4.88812967096551,9.21571846612679E-16,-34.6666734944857));
#513=CARTESIAN_POINT('',(5.58968134527098,-8.13151629364128E-17,-33.9427255351918));
#514=CARTESIAN_POINT('',(6.30069225763724,-8.13151629364128E-17,-33.2262552054731));
#515=CARTESIAN_POINT('',(7.01522225710062,-8.13151629364128E-17,-32.5137527432442));
#516=CARTESIAN_POINT('',(0.,0.,0.));
#517=CARTESIAN_POINT('',(0.,0.,-32.5764794761963));
#518=CARTESIAN_POINT('',(-12.2438264262456,0.,-32.5764794761963));
#519=CARTESIAN_POINT('',(7.01522225710062,0.,-32.5137527432442));
#520=CARTESIAN_POINT('',(8.06094240771277,-3.57265891105877E-33,-32.5263549003374));
#521=CARTESIAN_POINT('',(9.1066631608545,6.41817152346773E-33,-32.5389070792583));
#522=CARTESIAN_POINT('',(10.1523840929486,0.,-32.5514442203852));
#523=CARTESIAN_POINT('',(11.198105204658,0.,-32.563966449545));
#524=CARTESIAN_POINT('',(12.2438264262456,0.,-32.5764794761963));
#525=CARTESIAN_POINT('',(0.,0.,0.));
#526=CARTESIAN_POINT('',(0.,0.,-36.3051867487918));
#527=CARTESIAN_POINT('',(-15.9502687655901,0.,-36.3051867487918));
#528=CARTESIAN_POINT('',(12.2438264262456,0.,-32.5764794761963));
#529=CARTESIAN_POINT('',(12.9849833331267,7.48777695301304E-33,-33.3223516857582));
#530=CARTESIAN_POINT('',(13.7262259690905,1.28933416894439E-32,-34.0681387094684));
#531=CARTESIAN_POINT('',(14.4675286628553,0.,-34.8138660320519));
#532=CARTESIAN_POINT('',(15.2088793499655,0.,-35.5595456445547));
#533=CARTESIAN_POINT('',(15.9502687655901,0.,-36.3051867487918));
#534=CARTESIAN_POINT('',(0.,0.,0.));
#535=CARTESIAN_POINT('',(15.9502687655902,1.0842021724855E-16,-36.3051867487918));
#536=CARTESIAN_POINT('',(15.95167079063,1.0842021724855E-16,-37.3472903825245));
#537=CARTESIAN_POINT('',(15.9547155453371,1.0842021724855E-16,-38.3893918049932));
#538=CARTESIAN_POINT('',(15.9594022900842,-1.08420217248551E-16,-39.4314875739909));
#539=CARTESIAN_POINT('',(15.9657285450429,-1.08420217248551E-16,-40.4735742381943));
#540=CARTESIAN_POINT('',(15.9736901293715,-1.0842021724855E-16,-41.5156484108634));
#541=CARTESIAN_POINT('',(0.,0.,0.));
#542=CARTESIAN_POINT('',(0.,0.,-0.864140866699405));
#543=CARTESIAN_POINT('',(12.,0.,-0.864140866699405));
#544=CARTESIAN_POINT('',(0.,0.,-4.82544935071777));
#545=CARTESIAN_POINT('',(-12.,0.,-4.82544935071777));
#546=CARTESIAN_POINT('',(0.,0.,0.));
#547=CARTESIAN_POINT('',(0.,0.,84.));
#548=CARTESIAN_POINT('',(12.49675,0.,84.));
#549=CARTESIAN_POINT('',(0.,0.,0.));
#550=CARTESIAN_POINT('',(-12.49675,0.,0.));
#551=CARTESIAN_POINT('',(0.,0.,0.));
#552=CARTESIAN_POINT('',(0.,0.,85.));
#553=CARTESIAN_POINT('',(-5.1545,0.,85.));
#554=CARTESIAN_POINT('',(0.,0.,85.));
#555=CARTESIAN_POINT('',(11.49675,0.,85.));
#556=CARTESIAN_POINT('',(12.49675,0.,85.));
#557=CARTESIAN_POINT('',(0.,0.,-42.));
#558=CARTESIAN_POINT('',(-2.89152668678528,0.,-42.));
#559=CARTESIAN_POINT('',(5.32907051820075E-15,0.,-42.));
#560=CARTESIAN_POINT('',(0.,0.,-42.4684610648168));
#561=CARTESIAN_POINT('',(-5.00461799548879,0.,-42.4684610648168));
#562=CARTESIAN_POINT('',(0.,0.,-43.7900683813267));
#563=CARTESIAN_POINT('',(-7.8388140319405,0.,-43.7900683813267));
#564=CARTESIAN_POINT('',(0.,0.,-42.));
#565=CARTESIAN_POINT('',(0.,0.,-44.15));
#566=CARTESIAN_POINT('',(-8.94655122994091,0.,-44.15));
#567=CARTESIAN_POINT('',(0.,0.,-39.4589541982228));
#568=CARTESIAN_POINT('',(0.,0.,-44.15));
#569=CARTESIAN_POINT('',(-10.7703402577903,0.,-44.15));
#570=CARTESIAN_POINT('',(8.94655122994092,0.,-44.15));
#571=CARTESIAN_POINT('',(0.,0.,-37.2547725232724));
#572=CARTESIAN_POINT('',(-14.0986161959478,0.,-37.2547725232724));
#573=CARTESIAN_POINT('',(0.,0.,-39.4589541982228));
#574=CARTESIAN_POINT('',(0.,0.,-32.9914046395463));
#575=CARTESIAN_POINT('',(-12.9774813891678,0.,-32.9914046395463));
#576=CARTESIAN_POINT('',(0.,0.,-32.6424096725213));
#577=CARTESIAN_POINT('',(0.,0.,-5.17444431774278));
#578=CARTESIAN_POINT('',(-12.006091729809,0.,-5.17444431774278));
#579=CARTESIAN_POINT('',(0.,0.,-32.9914046395463));
#580=CARTESIAN_POINT('',(0.,0.,-0.864140866699405));
#581=CARTESIAN_POINT('',(0.,0.,-4.82544935071777));
#582=CARTESIAN_POINT('',(-2.89152668678528,0.,-42.));
#583=CARTESIAN_POINT('',(-2.89152668678528,5.78305337357055,-42.));
#584=CARTESIAN_POINT('',(2.89152668678528,5.78305337357055,-42.));
#585=CARTESIAN_POINT('',(2.89152668678528,0.,-42.));
#586=CARTESIAN_POINT('',(2.89152668678528,-5.78305337357055,-42.));
#587=CARTESIAN_POINT('',(-2.89152668678528,-5.78305337357055,-42.));
#588=CARTESIAN_POINT('',(-2.89152668678528,0.,-42.));
#589=CARTESIAN_POINT('',(-3.62457620021026,0.,-42.));
#590=CARTESIAN_POINT('',(-3.62457620021026,7.24915240042053,-42.));
#591=CARTESIAN_POINT('',(3.62457620021026,7.24915240042053,-42.));
#592=CARTESIAN_POINT('',(3.62457620021026,0.,-42.));
#593=CARTESIAN_POINT('',(3.62457620021026,-7.24915240042053,-42.));
#594=CARTESIAN_POINT('',(-3.62457620021026,-7.24915240042053,-42.));
#595=CARTESIAN_POINT('',(-3.62457620021026,0.,-42.));
#596=CARTESIAN_POINT('',(-4.34024951318829,0.,-42.1586609536832));
#597=CARTESIAN_POINT('',(-4.34024951318829,8.68049902637658,-42.1586609536832));
#598=CARTESIAN_POINT('',(4.34024951318829,8.68049902637658,-42.1586609536832));
#599=CARTESIAN_POINT('',(4.34024951318829,0.,-42.1586609536832));
#600=CARTESIAN_POINT('',(4.34024951318829,-8.68049902637658,-42.1586609536832));
#601=CARTESIAN_POINT('',(-4.34024951318829,-8.68049902637658,-42.1586609536832));
#602=CARTESIAN_POINT('',(-4.34024951318829,0.,-42.1586609536832));
#603=CARTESIAN_POINT('',(-5.00461799548878,0.,-42.4684610648168));
#604=CARTESIAN_POINT('',(-5.00461799548878,10.0092359909776,-42.4684610648168));
#605=CARTESIAN_POINT('',(5.00461799548878,10.0092359909776,-42.4684610648168));
#606=CARTESIAN_POINT('',(5.00461799548878,0.,-42.4684610648168));
#607=CARTESIAN_POINT('',(5.00461799548878,-10.0092359909776,-42.4684610648168));
#608=CARTESIAN_POINT('',(-5.00461799548878,-10.0092359909776,-42.4684610648168));
#609=CARTESIAN_POINT('',(-5.00461799548878,0.,-42.4684610648168));
#610=CARTESIAN_POINT('',(0.,0.,84.));
#611=CARTESIAN_POINT('',(0.,0.,-9.99999999999999));
#612=CARTESIAN_POINT('',(-4.,0.,-9.99999999999999));
#613=CARTESIAN_POINT('',(0.,0.,-12.3094010767585));
#614=CARTESIAN_POINT('',(0.,0.,-9.99999999999999));
#615=CARTESIAN_POINT('',(0.,0.,83.0003473426617));
#616=CARTESIAN_POINT('',(-4.,0.,83.0003473426617));
#617=CARTESIAN_POINT('',(0.,0.,-9.99999999999999));
#618=CARTESIAN_POINT('',(0.,0.,85.));
#619=MECHANICAL_DESIGN_GEOMETRIC_PRESENTATION_REPRESENTATION('',(#52,#53),
#620);
#620=(
GEOMETRIC_REPRESENTATION_CONTEXT(3)
GLOBAL_UNCERTAINTY_ASSIGNED_CONTEXT((#621))
GLOBAL_UNIT_ASSIGNED_CONTEXT((#627,#623,#622))
REPRESENTATION_CONTEXT('32N3R045A25_SOD05_C_115009729dni000_00_SIM',
'TOP_LEVEL_ASSEMBLY_PART')
);
#621=UNCERTAINTY_MEASURE_WITH_UNIT(LENGTH_MEASURE(0.0254),#627,
'DISTANCE_ACCURACY_VALUE','Maximum Tolerance applied to model');
#622=(
NAMED_UNIT(*)
SI_UNIT($,.STERADIAN.)
SOLID_ANGLE_UNIT()
);
#623=(
CONVERSION_BASED_UNIT('DEGREE',#625)
NAMED_UNIT(#624)
PLANE_ANGLE_UNIT()
);
#624=DIMENSIONAL_EXPONENTS(0.,0.,0.,0.,0.,0.,0.);
#625=PLANE_ANGLE_MEASURE_WITH_UNIT(PLANE_ANGLE_MEASURE(0.0174532925),#626);
#626=(
NAMED_UNIT(*)
PLANE_ANGLE_UNIT()
SI_UNIT($,.RADIAN.)
);
#627=(
LENGTH_UNIT()
NAMED_UNIT(*)
SI_UNIT(.MILLI.,.METRE.)
);
ENDSEC;
END-ISO-10303-21;
