ISO-10303-21;
HEADER;
/* Generated by software containing ST-Developer
 * from STEP Tools, Inc. (www.steptools.com) 
 */
/* OPTION: using custom schema-name function */

FILE_DESCRIPTION(
/* description */ (''),
/* implementation_level */ '2;1');

FILE_NAME(
/* name */ '32A2R045A25-SVC22C-SIM.stp',
/* time_stamp */ '2020-02-06T12:59:24+01:00',
/* author */ (''),
/* organization */ (''),
/* preprocessor_version */ 'ST-DEVELOPER v16.7',
/* originating_system */ 'SIEMENS PLM Software NX 12.0',
/* authorisation */ '');

FILE_SCHEMA (('AUTOMOTIVE_DESIGN { 1 0 10303 214 3 1 1 1 }'));
ENDSEC;

DATA;
#10=PROPERTY_DEFINITION_REPRESENTATION(#14,#12);
#11=PROPERTY_DEFINITION_REPRESENTATION(#15,#13);
#12=REPRESENTATION('',(#16),#509);
#13=REPRESENTATION('',(#17),#509);
#14=PROPERTY_DEFINITION('pmi validation property','',#21);
#15=PROPERTY_DEFINITION('pmi validation property','',#21);
#16=VALUE_REPRESENTATION_ITEM('number of annotations',COUNT_MEASURE(0.));
#17=VALUE_REPRESENTATION_ITEM('number of views',COUNT_MEASURE(0.));
#18=SHAPE_REPRESENTATION_RELATIONSHIP('None',
'relationship between hm1528D44D159skp-None and hm1528D44D159skp-None',
#30,#19);
#19=ADVANCED_BREP_SHAPE_REPRESENTATION('hm1528D44D159skp-None',(#67,#68),
#509);
#20=SHAPE_DEFINITION_REPRESENTATION(#21,#30);
#21=PRODUCT_DEFINITION_SHAPE('','',#22);
#22=PRODUCT_DEFINITION(' ','',#24,#23);
#23=PRODUCT_DEFINITION_CONTEXT('part definition',#29,'design');
#24=PRODUCT_DEFINITION_FORMATION_WITH_SPECIFIED_SOURCE(' ',' ',#26,
 .NOT_KNOWN.);
#25=PRODUCT_RELATED_PRODUCT_CATEGORY('part','',(#26));
#26=PRODUCT('hm1528D44D159skp','hm1528D44D159skp',' ',(#27));
#27=PRODUCT_CONTEXT(' ',#29,'mechanical');
#28=APPLICATION_PROTOCOL_DEFINITION('international standard',
'automotive_design',2010,#29);
#29=APPLICATION_CONTEXT(
'core data for automotive mechanical design processes');
#30=SHAPE_REPRESENTATION('hm1528D44D159skp-None',(#288),#509);
#31=VERTEX_LOOP('',#242);
#32=VERTEX_LOOP('',#245);
#33=(
BOUNDED_SURFACE()
B_SPLINE_SURFACE(3,3,((#463,#464,#465,#466,#467,#468,#469),(#470,#471,#472,
#473,#474,#475,#476),(#477,#478,#479,#480,#481,#482,#483),(#484,#485,#486,
#487,#488,#489,#490)),.UNSPECIFIED.,.F.,.T.,.F.)
B_SPLINE_SURFACE_WITH_KNOTS((4,4),(1,3,3,3,1),(0.,1.),(-0.5,0.,0.5,1.,1.5),
 .UNSPECIFIED.)
GEOMETRIC_REPRESENTATION_ITEM()
RATIONAL_B_SPLINE_SURFACE(((1.,0.333333333333333,0.333333333333333,1.,0.333333333333333,
0.333333333333333,1.),(0.920593825470257,0.306864608490086,0.306864608490086,
0.920593825470257,0.306864608490086,0.306864608490086,0.920593825470257),
(0.920593825470257,0.306864608490086,0.306864608490086,0.920593825470257,
0.306864608490086,0.306864608490086,0.920593825470257),(1.,0.333333333333333,
0.333333333333333,1.,0.333333333333333,0.333333333333333,1.)))
REPRESENTATION_ITEM('')
SURFACE()
);
#34=CONICAL_SURFACE('',#307,5.81396950019215,33.5);
#35=CONICAL_SURFACE('',#316,12.3,15.);
#36=CONICAL_SURFACE('',#318,11.,45.);
#37=CONICAL_SURFACE('',#320,0.8,59.);
#38=CONICAL_SURFACE('',#323,1.675,30.);
#39=CONICAL_SURFACE('',#325,3.,59.);
#40=CONICAL_SURFACE('',#328,4.,30.);
#41=TOROIDAL_SURFACE('',#305,13.4,1.8);
#42=TOROIDAL_SURFACE('',#312,16.3,4.);
#43=TOROIDAL_SURFACE('',#317,16.3,4.);
#44=CYLINDRICAL_SURFACE('',#300,12.5);
#45=CYLINDRICAL_SURFACE('',#303,15.2);
#46=CYLINDRICAL_SURFACE('',#314,12.3);
#47=CYLINDRICAL_SURFACE('',#322,0.8);
#48=CYLINDRICAL_SURFACE('',#327,3.);
#49=PRESENTATION_LAYER_ASSIGNMENT('96','Layer 96',(#67));
#50=PRESENTATION_LAYER_ASSIGNMENT('14','Layer 14',(#68));
#51=STYLED_ITEM('',(#53),#67);
#52=STYLED_ITEM('',(#54),#68);
#53=PRESENTATION_STYLE_ASSIGNMENT((#55));
#54=PRESENTATION_STYLE_ASSIGNMENT((#56));
#55=SURFACE_STYLE_USAGE(.BOTH.,#57);
#56=SURFACE_STYLE_USAGE(.BOTH.,#58);
#57=SURFACE_SIDE_STYLE('',(#59));
#58=SURFACE_SIDE_STYLE('',(#60));
#59=SURFACE_STYLE_FILL_AREA(#61);
#60=SURFACE_STYLE_FILL_AREA(#62);
#61=FILL_AREA_STYLE('',(#63));
#62=FILL_AREA_STYLE('',(#64));
#63=FILL_AREA_STYLE_COLOUR('',#65);
#64=FILL_AREA_STYLE_COLOUR('',#66);
#65=COLOUR_RGB('Light Gray',0.8,0.8,0.8);
#66=COLOUR_RGB('Medium Gray',0.499992370489052,0.499992370489052,0.499992370489052);
#67=MANIFOLD_SOLID_BREP('',#69);
#68=MANIFOLD_SOLID_BREP('',#70);
#69=CLOSED_SHELL('',(#117,#118,#119,#120));
#70=CLOSED_SHELL('',(#121,#122,#123,#124,#125,#126,#127,#128,#129,#130,
#131,#132,#133,#134,#135,#136,#137,#138));
#71=SURFACE_OF_REVOLUTION('',#75,#73);
#72=SURFACE_OF_REVOLUTION('',#270,#74);
#73=AXIS1_PLACEMENT('',#424,#342);
#74=AXIS1_PLACEMENT('',#426,#345);
#75=LINE('',#423,#76);
#76=VECTOR('',#341,12.6269898972983);
#77=FACE_BOUND('',#147,.T.);
#78=FACE_BOUND('',#148,.T.);
#79=FACE_BOUND('',#149,.T.);
#80=FACE_BOUND('',#150,.T.);
#81=FACE_BOUND('',#151,.T.);
#82=FACE_BOUND('',#152,.T.);
#83=FACE_BOUND('',#153,.T.);
#84=FACE_BOUND('',#154,.T.);
#85=FACE_BOUND('',#155,.T.);
#86=FACE_BOUND('',#156,.T.);
#87=FACE_BOUND('',#157,.T.);
#88=FACE_BOUND('',#158,.T.);
#89=FACE_BOUND('',#159,.T.);
#90=FACE_BOUND('',#160,.T.);
#91=FACE_BOUND('',#161,.T.);
#92=FACE_BOUND('',#162,.T.);
#93=FACE_BOUND('',#163,.T.);
#94=FACE_BOUND('',#164,.T.);
#95=FACE_BOUND('',#165,.T.);
#96=FACE_BOUND('',#166,.T.);
#97=FACE_BOUND('',#167,.T.);
#98=FACE_BOUND('',#168,.T.);
#99=FACE_BOUND('',#169,.T.);
#100=FACE_BOUND('',#170,.T.);
#101=FACE_BOUND('',#171,.T.);
#102=FACE_BOUND('',#172,.T.);
#103=FACE_BOUND('',#173,.T.);
#104=FACE_BOUND('',#174,.T.);
#105=FACE_BOUND('',#175,.T.);
#106=FACE_BOUND('',#31,.T.);
#107=FACE_BOUND('',#176,.T.);
#108=FACE_BOUND('',#177,.T.);
#109=FACE_BOUND('',#178,.T.);
#110=FACE_BOUND('',#179,.T.);
#111=FACE_BOUND('',#180,.T.);
#112=FACE_BOUND('',#32,.T.);
#113=FACE_BOUND('',#181,.T.);
#114=FACE_BOUND('',#182,.T.);
#115=FACE_BOUND('',#183,.T.);
#116=FACE_BOUND('',#184,.T.);
#117=ADVANCED_FACE('',(#143),#139,.F.);
#118=ADVANCED_FACE('',(#144),#140,.T.);
#119=ADVANCED_FACE('',(#77,#78),#71,.T.);
#120=ADVANCED_FACE('',(#79,#80),#72,.T.);
#121=ADVANCED_FACE('',(#81,#82),#141,.F.);
#122=ADVANCED_FACE('',(#83,#84),#44,.T.);
#123=ADVANCED_FACE('',(#85,#86),#45,.T.);
#124=ADVANCED_FACE('',(#87,#88),#41,.T.);
#125=ADVANCED_FACE('',(#89,#90),#34,.F.);
#126=ADVANCED_FACE('',(#91,#92),#142,.F.);
#127=ADVANCED_FACE('',(#93,#94),#42,.F.);
#128=ADVANCED_FACE('',(#95,#96),#46,.T.);
#129=ADVANCED_FACE('',(#97,#98),#35,.T.);
#130=ADVANCED_FACE('',(#99,#100),#43,.F.);
#131=ADVANCED_FACE('',(#101,#102),#33,.T.);
#132=ADVANCED_FACE('',(#103,#104),#36,.T.);
#133=ADVANCED_FACE('',(#105,#106),#37,.F.);
#134=ADVANCED_FACE('',(#107,#108),#47,.F.);
#135=ADVANCED_FACE('',(#109,#110),#38,.F.);
#136=ADVANCED_FACE('',(#111,#112),#39,.F.);
#137=ADVANCED_FACE('',(#113,#114),#48,.F.);
#138=ADVANCED_FACE('',(#115,#116),#40,.F.);
#139=PLANE('',#290);
#140=PLANE('',#292);
#141=PLANE('',#297);
#142=PLANE('',#310);
#143=FACE_OUTER_BOUND('',#145,.T.);
#144=FACE_OUTER_BOUND('',#146,.T.);
#145=EDGE_LOOP('',(#185));
#146=EDGE_LOOP('',(#186));
#147=EDGE_LOOP('',(#187));
#148=EDGE_LOOP('',(#188));
#149=EDGE_LOOP('',(#189));
#150=EDGE_LOOP('',(#190));
#151=EDGE_LOOP('',(#191));
#152=EDGE_LOOP('',(#192));
#153=EDGE_LOOP('',(#193));
#154=EDGE_LOOP('',(#194));
#155=EDGE_LOOP('',(#195));
#156=EDGE_LOOP('',(#196));
#157=EDGE_LOOP('',(#197));
#158=EDGE_LOOP('',(#198));
#159=EDGE_LOOP('',(#199));
#160=EDGE_LOOP('',(#200));
#161=EDGE_LOOP('',(#201));
#162=EDGE_LOOP('',(#202));
#163=EDGE_LOOP('',(#203));
#164=EDGE_LOOP('',(#204));
#165=EDGE_LOOP('',(#205));
#166=EDGE_LOOP('',(#206));
#167=EDGE_LOOP('',(#207));
#168=EDGE_LOOP('',(#208));
#169=EDGE_LOOP('',(#209));
#170=EDGE_LOOP('',(#210));
#171=EDGE_LOOP('',(#211));
#172=EDGE_LOOP('',(#212));
#173=EDGE_LOOP('',(#213));
#174=EDGE_LOOP('',(#214));
#175=EDGE_LOOP('',(#215));
#176=EDGE_LOOP('',(#216));
#177=EDGE_LOOP('',(#217));
#178=EDGE_LOOP('',(#218));
#179=EDGE_LOOP('',(#219));
#180=EDGE_LOOP('',(#220));
#181=EDGE_LOOP('',(#221));
#182=EDGE_LOOP('',(#222));
#183=EDGE_LOOP('',(#223));
#184=EDGE_LOOP('',(#224));
#185=ORIENTED_EDGE('',*,*,#247,.F.);
#186=ORIENTED_EDGE('',*,*,#248,.T.);
#187=ORIENTED_EDGE('',*,*,#248,.F.);
#188=ORIENTED_EDGE('',*,*,#249,.T.);
#189=ORIENTED_EDGE('',*,*,#249,.F.);
#190=ORIENTED_EDGE('',*,*,#247,.T.);
#191=ORIENTED_EDGE('',*,*,#250,.T.);
#192=ORIENTED_EDGE('',*,*,#251,.T.);
#193=ORIENTED_EDGE('',*,*,#252,.T.);
#194=ORIENTED_EDGE('',*,*,#253,.T.);
#195=ORIENTED_EDGE('',*,*,#254,.F.);
#196=ORIENTED_EDGE('',*,*,#255,.T.);
#197=ORIENTED_EDGE('',*,*,#255,.F.);
#198=ORIENTED_EDGE('',*,*,#256,.T.);
#199=ORIENTED_EDGE('',*,*,#257,.T.);
#200=ORIENTED_EDGE('',*,*,#256,.F.);
#201=ORIENTED_EDGE('',*,*,#258,.T.);
#202=ORIENTED_EDGE('',*,*,#259,.T.);
#203=ORIENTED_EDGE('',*,*,#260,.T.);
#204=ORIENTED_EDGE('',*,*,#253,.F.);
#205=ORIENTED_EDGE('',*,*,#261,.T.);
#206=ORIENTED_EDGE('',*,*,#260,.F.);
#207=ORIENTED_EDGE('',*,*,#262,.T.);
#208=ORIENTED_EDGE('',*,*,#254,.T.);
#209=ORIENTED_EDGE('',*,*,#262,.F.);
#210=ORIENTED_EDGE('',*,*,#261,.F.);
#211=ORIENTED_EDGE('',*,*,#259,.F.);
#212=ORIENTED_EDGE('',*,*,#257,.F.);
#213=ORIENTED_EDGE('',*,*,#252,.F.);
#214=ORIENTED_EDGE('',*,*,#251,.F.);
#215=ORIENTED_EDGE('',*,*,#263,.F.);
#216=ORIENTED_EDGE('',*,*,#263,.T.);
#217=ORIENTED_EDGE('',*,*,#264,.F.);
#218=ORIENTED_EDGE('',*,*,#264,.T.);
#219=ORIENTED_EDGE('',*,*,#258,.F.);
#220=ORIENTED_EDGE('',*,*,#265,.F.);
#221=ORIENTED_EDGE('',*,*,#265,.T.);
#222=ORIENTED_EDGE('',*,*,#266,.F.);
#223=ORIENTED_EDGE('',*,*,#266,.T.);
#224=ORIENTED_EDGE('',*,*,#250,.F.);
#225=VERTEX_POINT('',#416);
#226=VERTEX_POINT('',#419);
#227=VERTEX_POINT('',#422);
#228=VERTEX_POINT('',#428);
#229=VERTEX_POINT('',#430);
#230=VERTEX_POINT('',#433);
#231=VERTEX_POINT('',#435);
#232=VERTEX_POINT('',#438);
#233=VERTEX_POINT('',#440);
#234=VERTEX_POINT('',#443);
#235=VERTEX_POINT('',#446);
#236=VERTEX_POINT('',#449);
#237=VERTEX_POINT('',#451);
#238=VERTEX_POINT('',#454);
#239=VERTEX_POINT('',#457);
#240=VERTEX_POINT('',#460);
#241=VERTEX_POINT('',#493);
#242=VERTEX_POINT('',#494);
#243=VERTEX_POINT('',#497);
#244=VERTEX_POINT('',#501);
#245=VERTEX_POINT('',#502);
#246=VERTEX_POINT('',#505);
#247=EDGE_CURVE('',#225,#225,#267,.T.);
#248=EDGE_CURVE('',#226,#226,#268,.T.);
#249=EDGE_CURVE('',#227,#227,#269,.T.);
#250=EDGE_CURVE('',#228,#228,#271,.T.);
#251=EDGE_CURVE('',#229,#229,#272,.T.);
#252=EDGE_CURVE('',#230,#230,#273,.T.);
#253=EDGE_CURVE('',#231,#231,#274,.T.);
#254=EDGE_CURVE('',#232,#232,#275,.T.);
#255=EDGE_CURVE('',#233,#233,#276,.T.);
#256=EDGE_CURVE('',#234,#234,#277,.T.);
#257=EDGE_CURVE('',#235,#235,#278,.T.);
#258=EDGE_CURVE('',#236,#236,#279,.T.);
#259=EDGE_CURVE('',#237,#237,#280,.T.);
#260=EDGE_CURVE('',#238,#238,#281,.T.);
#261=EDGE_CURVE('',#239,#239,#282,.T.);
#262=EDGE_CURVE('',#240,#240,#283,.T.);
#263=EDGE_CURVE('',#241,#241,#284,.T.);
#264=EDGE_CURVE('',#243,#243,#285,.T.);
#265=EDGE_CURVE('',#244,#244,#286,.T.);
#266=EDGE_CURVE('',#246,#246,#287,.T.);
#267=CIRCLE('',#289,10.5486817175181);
#268=CIRCLE('',#291,15.9266307491464);
#269=CIRCLE('',#293,15.9411336535376);
#270=CIRCLE('',#294,3.);
#271=CIRCLE('',#295,4.);
#272=CIRCLE('',#296,11.);
#273=CIRCLE('',#298,12.5);
#274=CIRCLE('',#299,12.5);
#275=CIRCLE('',#301,15.2);
#276=CIRCLE('',#302,15.2);
#277=CIRCLE('',#304,11.8990055202791);
#278=CIRCLE('',#306,7.59336813975872);
#279=CIRCLE('',#308,1.675);
#280=CIRCLE('',#309,2.59005320735571);
#281=CIRCLE('',#311,12.3);
#282=CIRCLE('',#313,12.3);
#283=CIRCLE('',#315,12.4362966948437);
#284=CIRCLE('',#319,0.8);
#285=CIRCLE('',#321,0.8);
#286=CIRCLE('',#324,3.);
#287=CIRCLE('',#326,3.);
#288=AXIS2_PLACEMENT_3D('',#414,#329,#330);
#289=AXIS2_PLACEMENT_3D('',#415,#331,#332);
#290=AXIS2_PLACEMENT_3D('',#417,#333,#334);
#291=AXIS2_PLACEMENT_3D('',#418,#335,#336);
#292=AXIS2_PLACEMENT_3D('',#420,#337,#338);
#293=AXIS2_PLACEMENT_3D('',#421,#339,#340);
#294=AXIS2_PLACEMENT_3D('',#425,#343,#344);
#295=AXIS2_PLACEMENT_3D('',#427,#346,#347);
#296=AXIS2_PLACEMENT_3D('',#429,#348,#349);
#297=AXIS2_PLACEMENT_3D('',#431,#350,#351);
#298=AXIS2_PLACEMENT_3D('',#432,#352,#353);
#299=AXIS2_PLACEMENT_3D('',#434,#354,#355);
#300=AXIS2_PLACEMENT_3D('',#436,#356,#357);
#301=AXIS2_PLACEMENT_3D('',#437,#358,#359);
#302=AXIS2_PLACEMENT_3D('',#439,#360,#361);
#303=AXIS2_PLACEMENT_3D('',#441,#362,#363);
#304=AXIS2_PLACEMENT_3D('',#442,#364,#365);
#305=AXIS2_PLACEMENT_3D('',#444,#366,#367);
#306=AXIS2_PLACEMENT_3D('',#445,#368,#369);
#307=AXIS2_PLACEMENT_3D('',#447,#370,#371);
#308=AXIS2_PLACEMENT_3D('',#448,#372,#373);
#309=AXIS2_PLACEMENT_3D('',#450,#374,#375);
#310=AXIS2_PLACEMENT_3D('',#452,#376,#377);
#311=AXIS2_PLACEMENT_3D('',#453,#378,#379);
#312=AXIS2_PLACEMENT_3D('',#455,#380,#381);
#313=AXIS2_PLACEMENT_3D('',#456,#382,#383);
#314=AXIS2_PLACEMENT_3D('',#458,#384,#385);
#315=AXIS2_PLACEMENT_3D('',#459,#386,#387);
#316=AXIS2_PLACEMENT_3D('',#461,#388,#389);
#317=AXIS2_PLACEMENT_3D('',#462,#390,#391);
#318=AXIS2_PLACEMENT_3D('',#491,#392,#393);
#319=AXIS2_PLACEMENT_3D('',#492,#394,#395);
#320=AXIS2_PLACEMENT_3D('',#495,#396,#397);
#321=AXIS2_PLACEMENT_3D('',#496,#398,#399);
#322=AXIS2_PLACEMENT_3D('',#498,#400,#401);
#323=AXIS2_PLACEMENT_3D('',#499,#402,#403);
#324=AXIS2_PLACEMENT_3D('',#500,#404,#405);
#325=AXIS2_PLACEMENT_3D('',#503,#406,#407);
#326=AXIS2_PLACEMENT_3D('',#504,#408,#409);
#327=AXIS2_PLACEMENT_3D('',#506,#410,#411);
#328=AXIS2_PLACEMENT_3D('',#507,#412,#413);
#329=DIRECTION('',(0.,0.,1.));
#330=DIRECTION('',(1.,0.,0.));
#331=DIRECTION('',(1.,0.,0.));
#332=DIRECTION('',(0.,0.,-1.));
#333=DIRECTION('',(1.,0.,0.));
#334=DIRECTION('',(0.,0.,-1.));
#335=DIRECTION('',(1.,0.,0.));
#336=DIRECTION('',(0.,0.,-1.));
#337=DIRECTION('',(1.,0.,0.));
#338=DIRECTION('',(0.,0.,-1.));
#339=DIRECTION('',(1.,0.,0.));
#340=DIRECTION('',(0.,0.,-1.));
#341=DIRECTION('',(0.998622173124775,-0.00383971491924316,-0.0523355704362737));
#342=DIRECTION('',(1.,0.,0.));
#343=DIRECTION('',(0.0523359562429433,0.,0.998629534754574));
#344=DIRECTION('',(0.998622173124775,-0.00383971491924351,-0.0523355704362737));
#345=DIRECTION('',(1.,0.,0.));
#346=DIRECTION('',(-1.,0.,0.));
#347=DIRECTION('',(0.,0.,1.));
#348=DIRECTION('',(1.,0.,0.));
#349=DIRECTION('',(0.,0.,1.));
#350=DIRECTION('',(-1.,0.,0.));
#351=DIRECTION('',(0.,0.,1.));
#352=DIRECTION('',(-1.,0.,0.));
#353=DIRECTION('',(0.,0.,1.));
#354=DIRECTION('',(1.,0.,0.));
#355=DIRECTION('',(0.,0.,-1.));
#356=DIRECTION('',(1.,0.,0.));
#357=DIRECTION('',(0.,0.,-1.));
#358=DIRECTION('',(1.,0.,0.));
#359=DIRECTION('',(0.,0.,-1.));
#360=DIRECTION('',(1.,0.,0.));
#361=DIRECTION('',(0.,0.,-1.));
#362=DIRECTION('',(1.,0.,0.));
#363=DIRECTION('',(0.,0.,-1.));
#364=DIRECTION('',(1.,0.,0.));
#365=DIRECTION('',(0.,0.,-1.));
#366=DIRECTION('',(1.,0.,0.));
#367=DIRECTION('',(0.,0.,-1.));
#368=DIRECTION('',(1.,0.,0.));
#369=DIRECTION('',(0.,0.,1.));
#370=DIRECTION('',(-1.,0.,0.));
#371=DIRECTION('',(4.67650808965516E-17,0.,1.));
#372=DIRECTION('',(1.,0.,0.));
#373=DIRECTION('',(0.,0.,-1.));
#374=DIRECTION('',(-1.,0.,0.));
#375=DIRECTION('',(0.,0.,-1.));
#376=DIRECTION('',(1.,0.,0.));
#377=DIRECTION('',(0.,0.,-1.));
#378=DIRECTION('',(1.,0.,0.));
#379=DIRECTION('',(0.,0.,-1.));
#380=DIRECTION('',(1.,0.,0.));
#381=DIRECTION('',(0.,0.,-1.));
#382=DIRECTION('',(1.,0.,0.));
#383=DIRECTION('',(0.,0.,-1.));
#384=DIRECTION('',(1.,0.,0.));
#385=DIRECTION('',(0.,0.,-1.));
#386=DIRECTION('',(-1.,0.,0.));
#387=DIRECTION('',(0.,0.,1.));
#388=DIRECTION('',(-1.,0.,0.));
#389=DIRECTION('',(2.47597284534998E-17,0.,1.));
#390=DIRECTION('',(1.,0.,0.));
#391=DIRECTION('',(0.,0.,-1.));
#392=DIRECTION('',(-1.,0.,0.));
#393=DIRECTION('',(0.,0.,1.));
#394=DIRECTION('',(1.,0.,0.));
#395=DIRECTION('',(0.,0.,-1.));
#396=DIRECTION('',(-1.,0.,0.));
#397=DIRECTION('',(2.70874819211197E-17,0.,1.));
#398=DIRECTION('',(1.,0.,0.));
#399=DIRECTION('',(0.,0.,-1.));
#400=DIRECTION('',(1.,0.,0.));
#401=DIRECTION('',(0.,0.,-1.));
#402=DIRECTION('',(-1.,0.,0.));
#403=DIRECTION('',(5.39268737118908E-17,0.,1.));
#404=DIRECTION('',(-1.,0.,0.));
#405=DIRECTION('',(0.,0.,1.));
#406=DIRECTION('',(1.,0.,0.));
#407=DIRECTION('',(2.08090304515858E-17,0.,-1.));
#408=DIRECTION('',(-1.,0.,0.));
#409=DIRECTION('',(0.,0.,1.));
#410=DIRECTION('',(-1.,0.,0.));
#411=DIRECTION('',(0.,0.,1.));
#412=DIRECTION('',(1.,0.,0.));
#413=DIRECTION('',(1.90973167720857E-16,0.,-1.));
#414=CARTESIAN_POINT('',(0.,0.,0.));
#415=CARTESIAN_POINT('',(1.28695316165961,0.,0.));
#416=CARTESIAN_POINT('',(1.28695316165961,0.,-10.5486817175181));
#417=CARTESIAN_POINT('',(1.28695316165961,0.,0.));
#418=CARTESIAN_POINT('',(15.5939773373589,0.,0.));
#419=CARTESIAN_POINT('',(15.5939773373589,0.,-15.9266307491464));
#420=CARTESIAN_POINT('',(15.5939773373589,0.,0.));
#421=CARTESIAN_POINT('',(2.98438524609427,0.,0.));
#422=CARTESIAN_POINT('',(2.98438524609427,0.,-15.9411336535376));
#423=CARTESIAN_POINT('',(2.98438524609428,-15.8341687387747,1.84359499672714));
#424=CARTESIAN_POINT('',(0.,0.,0.));
#425=CARTESIAN_POINT('',(2.99588860426446,-12.8341908539722,1.84299213127115));
#426=CARTESIAN_POINT('',(0.,0.,0.));
#427=CARTESIAN_POINT('',(120.,-1.0842021724855E-16,0.));
#428=CARTESIAN_POINT('',(120.,-1.0842021724855E-16,4.));
#429=CARTESIAN_POINT('',(120.,0.,0.));
#430=CARTESIAN_POINT('',(120.,0.,11.));
#431=CARTESIAN_POINT('',(120.,-12.5,0.));
#432=CARTESIAN_POINT('',(118.5,0.,0.));
#433=CARTESIAN_POINT('',(118.5,0.,12.5));
#434=CARTESIAN_POINT('',(45.,0.,0.));
#435=CARTESIAN_POINT('',(45.,0.,-12.5));
#436=CARTESIAN_POINT('',(0.,0.,0.));
#437=CARTESIAN_POINT('',(25.8,0.,0.));
#438=CARTESIAN_POINT('',(25.8,0.,-15.2));
#439=CARTESIAN_POINT('',(2.6,0.,0.));
#440=CARTESIAN_POINT('',(2.6,0.,-15.2));
#441=CARTESIAN_POINT('',(0.,0.,0.));
#442=CARTESIAN_POINT('',(1.60651342643829,0.,0.));
#443=CARTESIAN_POINT('',(1.60651342643829,0.,-11.8990055202791));
#444=CARTESIAN_POINT('',(2.6,0.,0.));
#445=CARTESIAN_POINT('',(8.11162191187235,0.,0.));
#446=CARTESIAN_POINT('',(8.11162191187235,0.,7.59336813975872));
#447=CARTESIAN_POINT('',(10.8,0.,0.));
#448=CARTESIAN_POINT('',(10.8,0.,4.33680868994202E-16));
#449=CARTESIAN_POINT('',(10.8,0.,-1.675));
#450=CARTESIAN_POINT('',(10.8,0.,0.));
#451=CARTESIAN_POINT('',(10.8,0.,-2.59005320735571));
#452=CARTESIAN_POINT('',(10.8,0.,0.));
#453=CARTESIAN_POINT('',(43.7510004003203,0.,0.));
#454=CARTESIAN_POINT('',(43.7510004003203,0.,-12.3));
#455=CARTESIAN_POINT('',(43.7510004003203,0.,0.));
#456=CARTESIAN_POINT('',(37.1495573322993,0.,0.));
#457=CARTESIAN_POINT('',(37.1495573322993,0.,-12.3));
#458=CARTESIAN_POINT('',(0.,0.,0.));
#459=CARTESIAN_POINT('',(36.1142811518893,0.,0.));
#460=CARTESIAN_POINT('',(36.1142811518893,0.,12.4362966948437));
#461=CARTESIAN_POINT('',(36.6229473419497,0.,0.));
#462=CARTESIAN_POINT('',(37.1495573322993,0.,0.));
#463=CARTESIAN_POINT('',(8.11162191187235,0.,-7.59336813975872));
#464=CARTESIAN_POINT('',(8.11162191187235,15.1867362795174,-7.59336813975872));
#465=CARTESIAN_POINT('',(8.11162191187235,15.1867362795174,7.59336813975872));
#466=CARTESIAN_POINT('',(8.11162191187235,0.,7.59336813975872));
#467=CARTESIAN_POINT('',(8.11162191187235,-15.1867362795174,7.59336813975872));
#468=CARTESIAN_POINT('',(8.11162191187235,-15.1867362795174,-7.59336813975872));
#469=CARTESIAN_POINT('',(8.11162191187235,0.,-7.59336813975872));
#470=CARTESIAN_POINT('',(9.82657827525823,0.,-6.45826328475293));
#471=CARTESIAN_POINT('',(9.82657827525823,12.9165265695059,-6.45826328475293));
#472=CARTESIAN_POINT('',(9.82657827525823,12.9165265695059,6.45826328475293));
#473=CARTESIAN_POINT('',(9.82657827525823,0.,6.45826328475293));
#474=CARTESIAN_POINT('',(9.82657827525823,-12.9165265695059,6.45826328475293));
#475=CARTESIAN_POINT('',(9.82657827525823,-12.9165265695059,-6.45826328475293));
#476=CARTESIAN_POINT('',(9.82657827525823,0.,-6.45826328475293));
#477=CARTESIAN_POINT('',(10.8,0.,-4.64663735593204));
#478=CARTESIAN_POINT('',(10.8,9.29327471186408,-4.64663735593204));
#479=CARTESIAN_POINT('',(10.8,9.29327471186408,4.64663735593204));
#480=CARTESIAN_POINT('',(10.8,0.,4.64663735593204));
#481=CARTESIAN_POINT('',(10.8,-9.29327471186408,4.64663735593204));
#482=CARTESIAN_POINT('',(10.8,-9.29327471186408,-4.64663735593204));
#483=CARTESIAN_POINT('',(10.8,0.,-4.64663735593204));
#484=CARTESIAN_POINT('',(10.8,0.,-2.59005320735571));
#485=CARTESIAN_POINT('',(10.8,5.18010641471142,-2.59005320735571));
#486=CARTESIAN_POINT('',(10.8,5.18010641471142,2.59005320735571));
#487=CARTESIAN_POINT('',(10.8,0.,2.59005320735571));
#488=CARTESIAN_POINT('',(10.8,-5.18010641471142,2.59005320735571));
#489=CARTESIAN_POINT('',(10.8,-5.18010641471142,-2.59005320735571));
#490=CARTESIAN_POINT('',(10.8,0.,-2.59005320735571));
#491=CARTESIAN_POINT('',(120.,0.,0.));
#492=CARTESIAN_POINT('',(13.7,0.,4.33680868994202E-16));
#493=CARTESIAN_POINT('',(13.7,0.,-0.8));
#494=CARTESIAN_POINT('',(14.1806884952221,0.,4.33680868994202E-16));
#495=CARTESIAN_POINT('',(13.7,0.,4.33680868994202E-16));
#496=CARTESIAN_POINT('',(12.3155444566228,0.,4.33680868994202E-16));
#497=CARTESIAN_POINT('',(12.3155444566228,0.,-0.8));
#498=CARTESIAN_POINT('',(13.7,0.,4.33680868994202E-16));
#499=CARTESIAN_POINT('',(10.8,0.,4.33680868994202E-16));
#500=CARTESIAN_POINT('',(42.,-1.0842021724855E-16,0.));
#501=CARTESIAN_POINT('',(42.,-1.0842021724855E-16,3.));
#502=CARTESIAN_POINT('',(40.1974181429173,-1.0842021724855E-16,0.));
#503=CARTESIAN_POINT('',(42.,-1.0842021724855E-16,0.));
#504=CARTESIAN_POINT('',(118.267949192431,-1.0842021724855E-16,0.));
#505=CARTESIAN_POINT('',(118.267949192431,-1.0842021724855E-16,3.));
#506=CARTESIAN_POINT('',(42.,-1.0842021724855E-16,0.));
#507=CARTESIAN_POINT('',(120.,-1.0842021724855E-16,0.));
#508=MECHANICAL_DESIGN_GEOMETRIC_PRESENTATION_REPRESENTATION('',(#51,#52),
#509);
#509=(
GEOMETRIC_REPRESENTATION_CONTEXT(3)
GLOBAL_UNCERTAINTY_ASSIGNED_CONTEXT((#510))
GLOBAL_UNIT_ASSIGNED_CONTEXT((#516,#512,#511))
REPRESENTATION_CONTEXT('32A2R045A25-SVC22C-SIM',
'TOP_LEVEL_ASSEMBLY_PART')
);
#510=UNCERTAINTY_MEASURE_WITH_UNIT(LENGTH_MEASURE(0.0254),#516,
'DISTANCE_ACCURACY_VALUE','Maximum Tolerance applied to model');
#511=(
NAMED_UNIT(*)
SI_UNIT($,.STERADIAN.)
SOLID_ANGLE_UNIT()
);
#512=(
CONVERSION_BASED_UNIT('DEGREE',#514)
NAMED_UNIT(#513)
PLANE_ANGLE_UNIT()
);
#513=DIMENSIONAL_EXPONENTS(0.,0.,0.,0.,0.,0.,0.);
#514=PLANE_ANGLE_MEASURE_WITH_UNIT(PLANE_ANGLE_MEASURE(0.0174532925),#515);
#515=(
NAMED_UNIT(*)
PLANE_ANGLE_UNIT()
SI_UNIT($,.RADIAN.)
);
#516=(
LENGTH_UNIT()
NAMED_UNIT(*)
SI_UNIT(.MILLI.,.METRE.)
);
ENDSEC;
END-ISO-10303-21;
