ISO-10303-21;
HEADER;
/* Generated by software containing ST-Developer
 * from STEP Tools, Inc. (www.steptools.com) 
 */
/* OPTION: using custom schema-name function */

FILE_DESCRIPTION(
/* description */ (''),
/* implementation_level */ '2;1');

FILE_NAME(
/* name */ '25N3R043E03_SSD09_A_SIM.stp',
/* time_stamp */ '2019-12-16T10:03:17+01:00',
/* author */ (''),
/* organization */ (''),
/* preprocessor_version */ 'ST-DEVELOPER v16.7',
/* originating_system */ 'SIEMENS PLM Software NX 12.0',
/* authorisation */ '');

FILE_SCHEMA (('AUTOMOTIVE_DESIGN { 1 0 10303 214 3 1 1 1 }'));
ENDSEC;

DATA;
#10=PROPERTY_DEFINITION_REPRESENTATION(#14,#12);
#11=PROPERTY_DEFINITION_REPRESENTATION(#15,#13);
#12=REPRESENTATION('',(#16),#638);
#13=REPRESENTATION('',(#17),#638);
#14=PROPERTY_DEFINITION('pmi validation property','',#21);
#15=PROPERTY_DEFINITION('pmi validation property','',#21);
#16=VALUE_REPRESENTATION_ITEM('number of annotations',COUNT_MEASURE(0.));
#17=VALUE_REPRESENTATION_ITEM('number of views',COUNT_MEASURE(0.));
#18=SHAPE_REPRESENTATION_RELATIONSHIP('None',
'relationship between pp073CE8171Alem8-None and pp073CE8171Alem8-None',
#30,#19);
#19=ADVANCED_BREP_SHAPE_REPRESENTATION('pp073CE8171Alem8-None',(#70,#71),
#638);
#20=SHAPE_DEFINITION_REPRESENTATION(#21,#30);
#21=PRODUCT_DEFINITION_SHAPE('','',#22);
#22=PRODUCT_DEFINITION(' ','',#24,#23);
#23=PRODUCT_DEFINITION_CONTEXT('part definition',#29,'design');
#24=PRODUCT_DEFINITION_FORMATION_WITH_SPECIFIED_SOURCE(' ',' ',#26,
 .NOT_KNOWN.);
#25=PRODUCT_RELATED_PRODUCT_CATEGORY('part','',(#26));
#26=PRODUCT('pp073CE8171Alem8','pp073CE8171Alem8',' ',(#27));
#27=PRODUCT_CONTEXT(' ',#29,'mechanical');
#28=APPLICATION_PROTOCOL_DEFINITION('international standard',
'automotive_design',2010,#29);
#29=APPLICATION_CONTEXT(
'core data for automotive mechanical design processes');
#30=SHAPE_REPRESENTATION('pp073CE8171Alem8-None',(#375),#638);
#31=CYLINDRICAL_SURFACE('',#402,9.5);
#32=CYLINDRICAL_SURFACE('',#410,10.4);
#33=CYLINDRICAL_SURFACE('',#416,11.5);
#34=CYLINDRICAL_SURFACE('',#422,5.15);
#35=CYLINDRICAL_SURFACE('',#426,6.5);
#36=CYLINDRICAL_SURFACE('',#430,17.5660384203266);
#37=PLANE('',#399);
#38=PLANE('',#404);
#39=PLANE('',#408);
#40=PLANE('',#412);
#41=PLANE('',#424);
#42=VERTEX_LOOP('',#301);
#43=VERTEX_LOOP('',#315);
#44=SURFACE_OF_REVOLUTION('',#48,#46);
#45=SURFACE_OF_REVOLUTION('',#49,#47);
#46=AXIS1_PLACEMENT('',#577,#470);
#47=AXIS1_PLACEMENT('',#583,#476);
#48=LINE('',#576,#50);
#49=LINE('',#582,#51);
#50=VECTOR('',#469,11.9132020430905);
#51=VECTOR('',#475,9.10473457284125);
#52=PRESENTATION_LAYER_ASSIGNMENT('96','Layer 96',(#70));
#53=PRESENTATION_LAYER_ASSIGNMENT('14','Layer 14',(#71));
#54=STYLED_ITEM('',(#56),#70);
#55=STYLED_ITEM('',(#57),#71);
#56=PRESENTATION_STYLE_ASSIGNMENT((#58));
#57=PRESENTATION_STYLE_ASSIGNMENT((#59));
#58=SURFACE_STYLE_USAGE(.BOTH.,#60);
#59=SURFACE_STYLE_USAGE(.BOTH.,#61);
#60=SURFACE_SIDE_STYLE('',(#62));
#61=SURFACE_SIDE_STYLE('',(#63));
#62=SURFACE_STYLE_FILL_AREA(#64);
#63=SURFACE_STYLE_FILL_AREA(#65);
#64=FILL_AREA_STYLE('',(#66));
#65=FILL_AREA_STYLE('',(#67));
#66=FILL_AREA_STYLE_COLOUR('',#68);
#67=FILL_AREA_STYLE_COLOUR('',#69);
#68=COLOUR_RGB('Light Gray',0.8,0.8,0.8);
#69=COLOUR_RGB('Silver Gray',0.6,0.6,0.6);
#70=MANIFOLD_SOLID_BREP('',#72);
#71=MANIFOLD_SOLID_BREP('',#73);
#72=CLOSED_SHELL('',(#84,#85,#86,#87,#88,#89,#90,#91));
#73=CLOSED_SHELL('',(#92,#93,#94,#95,#96,#97,#98,#99,#100,#101,#102,#103,
#104,#105,#106,#107,#108,#109,#110,#111,#112));
#74=CONICAL_SURFACE('',#380,11.6029437251495,44.9999999999998);
#75=CONICAL_SURFACE('',#384,5.99912248424608,44.9999999999998);
#76=CONICAL_SURFACE('',#388,12.734314575048,45.);
#77=CONICAL_SURFACE('',#391,18.3381358159514,44.9999999999997);
#78=CONICAL_SURFACE('',#396,6.13941552121146E-18,85.);
#79=CONICAL_SURFACE('',#406,10.6324197454928,1.4378);
#80=CONICAL_SURFACE('',#414,12.0379980641674,1.4378);
#81=CONICAL_SURFACE('',#418,8.,60.);
#82=CONICAL_SURFACE('',#420,5.15,60.);
#83=CONICAL_SURFACE('',#427,7.5,30.);
#84=ADVANCED_FACE('',(#119,#120),#113,.T.);
#85=ADVANCED_FACE('',(#121,#122),#74,.F.);
#86=ADVANCED_FACE('',(#123,#124),#114,.T.);
#87=ADVANCED_FACE('',(#125,#126),#75,.F.);
#88=ADVANCED_FACE('',(#127,#128),#115,.T.);
#89=ADVANCED_FACE('',(#129,#130),#76,.T.);
#90=ADVANCED_FACE('',(#131,#132),#116,.T.);
#91=ADVANCED_FACE('',(#133,#134),#77,.T.);
#92=ADVANCED_FACE('',(#135,#136),#44,.T.);
#93=ADVANCED_FACE('',(#137,#138),#45,.T.);
#94=ADVANCED_FACE('',(#139,#140),#78,.F.);
#95=ADVANCED_FACE('',(#141,#142),#37,.F.);
#96=ADVANCED_FACE('',(#143,#144),#31,.T.);
#97=ADVANCED_FACE('',(#145,#146),#38,.F.);
#98=ADVANCED_FACE('',(#147,#148),#79,.T.);
#99=ADVANCED_FACE('',(#149,#150),#39,.F.);
#100=ADVANCED_FACE('',(#151,#152),#32,.T.);
#101=ADVANCED_FACE('',(#153,#154),#40,.F.);
#102=ADVANCED_FACE('',(#155,#156),#80,.T.);
#103=ADVANCED_FACE('',(#157,#158),#33,.T.);
#104=ADVANCED_FACE('',(#159,#160),#81,.F.);
#105=ADVANCED_FACE('',(#161,#162),#82,.F.);
#106=ADVANCED_FACE('',(#163,#164),#34,.F.);
#107=ADVANCED_FACE('',(#165,#166),#41,.F.);
#108=ADVANCED_FACE('',(#167,#168),#35,.F.);
#109=ADVANCED_FACE('',(#169,#170),#83,.F.);
#110=ADVANCED_FACE('',(#171,#172),#117,.T.);
#111=ADVANCED_FACE('',(#173,#174),#118,.F.);
#112=ADVANCED_FACE('',(#175,#176),#36,.T.);
#113=TOROIDAL_SURFACE('',#378,12.1686291500988,0.800000000000001);
#114=TOROIDAL_SURFACE('',#382,6.56480790919538,0.800000000000001);
#115=TOROIDAL_SURFACE('',#386,12.1686291500987,0.800000000000001);
#116=TOROIDAL_SURFACE('',#390,17.7724503910021,0.800000000000001);
#117=TOROIDAL_SURFACE('',#428,8.5,1.);
#118=TOROIDAL_SURFACE('',#429,12.3,0.8);
#119=FACE_BOUND('',#177,.T.);
#120=FACE_BOUND('',#178,.T.);
#121=FACE_BOUND('',#179,.T.);
#122=FACE_BOUND('',#180,.T.);
#123=FACE_BOUND('',#181,.T.);
#124=FACE_BOUND('',#182,.T.);
#125=FACE_BOUND('',#183,.T.);
#126=FACE_BOUND('',#184,.T.);
#127=FACE_BOUND('',#185,.T.);
#128=FACE_BOUND('',#186,.T.);
#129=FACE_BOUND('',#187,.T.);
#130=FACE_BOUND('',#188,.T.);
#131=FACE_BOUND('',#189,.T.);
#132=FACE_BOUND('',#190,.T.);
#133=FACE_BOUND('',#191,.T.);
#134=FACE_BOUND('',#192,.T.);
#135=FACE_BOUND('',#193,.T.);
#136=FACE_BOUND('',#194,.T.);
#137=FACE_BOUND('',#195,.T.);
#138=FACE_BOUND('',#196,.T.);
#139=FACE_BOUND('',#197,.T.);
#140=FACE_BOUND('',#42,.T.);
#141=FACE_BOUND('',#198,.T.);
#142=FACE_BOUND('',#199,.T.);
#143=FACE_BOUND('',#200,.T.);
#144=FACE_BOUND('',#201,.T.);
#145=FACE_BOUND('',#202,.T.);
#146=FACE_BOUND('',#203,.T.);
#147=FACE_BOUND('',#204,.T.);
#148=FACE_BOUND('',#205,.T.);
#149=FACE_BOUND('',#206,.T.);
#150=FACE_BOUND('',#207,.T.);
#151=FACE_BOUND('',#208,.T.);
#152=FACE_BOUND('',#209,.T.);
#153=FACE_BOUND('',#210,.T.);
#154=FACE_BOUND('',#211,.T.);
#155=FACE_BOUND('',#212,.T.);
#156=FACE_BOUND('',#213,.T.);
#157=FACE_BOUND('',#214,.T.);
#158=FACE_BOUND('',#215,.T.);
#159=FACE_BOUND('',#216,.T.);
#160=FACE_BOUND('',#217,.T.);
#161=FACE_BOUND('',#218,.T.);
#162=FACE_BOUND('',#43,.T.);
#163=FACE_BOUND('',#219,.T.);
#164=FACE_BOUND('',#220,.T.);
#165=FACE_BOUND('',#221,.T.);
#166=FACE_BOUND('',#222,.T.);
#167=FACE_BOUND('',#223,.T.);
#168=FACE_BOUND('',#224,.T.);
#169=FACE_BOUND('',#225,.T.);
#170=FACE_BOUND('',#226,.T.);
#171=FACE_BOUND('',#227,.T.);
#172=FACE_BOUND('',#228,.T.);
#173=FACE_BOUND('',#229,.T.);
#174=FACE_BOUND('',#230,.T.);
#175=FACE_BOUND('',#231,.T.);
#176=FACE_BOUND('',#232,.T.);
#177=EDGE_LOOP('',(#233));
#178=EDGE_LOOP('',(#234));
#179=EDGE_LOOP('',(#235));
#180=EDGE_LOOP('',(#236));
#181=EDGE_LOOP('',(#237));
#182=EDGE_LOOP('',(#238));
#183=EDGE_LOOP('',(#239));
#184=EDGE_LOOP('',(#240));
#185=EDGE_LOOP('',(#241));
#186=EDGE_LOOP('',(#242));
#187=EDGE_LOOP('',(#243));
#188=EDGE_LOOP('',(#244));
#189=EDGE_LOOP('',(#245));
#190=EDGE_LOOP('',(#246));
#191=EDGE_LOOP('',(#247));
#192=EDGE_LOOP('',(#248));
#193=EDGE_LOOP('',(#249));
#194=EDGE_LOOP('',(#250));
#195=EDGE_LOOP('',(#251));
#196=EDGE_LOOP('',(#252));
#197=EDGE_LOOP('',(#253));
#198=EDGE_LOOP('',(#254));
#199=EDGE_LOOP('',(#255));
#200=EDGE_LOOP('',(#256));
#201=EDGE_LOOP('',(#257));
#202=EDGE_LOOP('',(#258));
#203=EDGE_LOOP('',(#259));
#204=EDGE_LOOP('',(#260));
#205=EDGE_LOOP('',(#261));
#206=EDGE_LOOP('',(#262));
#207=EDGE_LOOP('',(#263));
#208=EDGE_LOOP('',(#264));
#209=EDGE_LOOP('',(#265));
#210=EDGE_LOOP('',(#266));
#211=EDGE_LOOP('',(#267));
#212=EDGE_LOOP('',(#268));
#213=EDGE_LOOP('',(#269));
#214=EDGE_LOOP('',(#270));
#215=EDGE_LOOP('',(#271));
#216=EDGE_LOOP('',(#272));
#217=EDGE_LOOP('',(#273));
#218=EDGE_LOOP('',(#274));
#219=EDGE_LOOP('',(#275));
#220=EDGE_LOOP('',(#276));
#221=EDGE_LOOP('',(#277));
#222=EDGE_LOOP('',(#278));
#223=EDGE_LOOP('',(#279));
#224=EDGE_LOOP('',(#280));
#225=EDGE_LOOP('',(#281));
#226=EDGE_LOOP('',(#282));
#227=EDGE_LOOP('',(#283));
#228=EDGE_LOOP('',(#284));
#229=EDGE_LOOP('',(#285));
#230=EDGE_LOOP('',(#286));
#231=EDGE_LOOP('',(#287));
#232=EDGE_LOOP('',(#288));
#233=ORIENTED_EDGE('',*,*,#319,.F.);
#234=ORIENTED_EDGE('',*,*,#320,.T.);
#235=ORIENTED_EDGE('',*,*,#321,.F.);
#236=ORIENTED_EDGE('',*,*,#319,.T.);
#237=ORIENTED_EDGE('',*,*,#322,.T.);
#238=ORIENTED_EDGE('',*,*,#321,.T.);
#239=ORIENTED_EDGE('',*,*,#323,.F.);
#240=ORIENTED_EDGE('',*,*,#322,.F.);
#241=ORIENTED_EDGE('',*,*,#324,.F.);
#242=ORIENTED_EDGE('',*,*,#323,.T.);
#243=ORIENTED_EDGE('',*,*,#325,.F.);
#244=ORIENTED_EDGE('',*,*,#324,.T.);
#245=ORIENTED_EDGE('',*,*,#326,.T.);
#246=ORIENTED_EDGE('',*,*,#325,.T.);
#247=ORIENTED_EDGE('',*,*,#320,.F.);
#248=ORIENTED_EDGE('',*,*,#326,.F.);
#249=ORIENTED_EDGE('',*,*,#327,.T.);
#250=ORIENTED_EDGE('',*,*,#328,.T.);
#251=ORIENTED_EDGE('',*,*,#329,.T.);
#252=ORIENTED_EDGE('',*,*,#330,.F.);
#253=ORIENTED_EDGE('',*,*,#328,.F.);
#254=ORIENTED_EDGE('',*,*,#331,.T.);
#255=ORIENTED_EDGE('',*,*,#332,.T.);
#256=ORIENTED_EDGE('',*,*,#333,.T.);
#257=ORIENTED_EDGE('',*,*,#334,.T.);
#258=ORIENTED_EDGE('',*,*,#334,.F.);
#259=ORIENTED_EDGE('',*,*,#335,.T.);
#260=ORIENTED_EDGE('',*,*,#335,.F.);
#261=ORIENTED_EDGE('',*,*,#336,.T.);
#262=ORIENTED_EDGE('',*,*,#336,.F.);
#263=ORIENTED_EDGE('',*,*,#337,.T.);
#264=ORIENTED_EDGE('',*,*,#337,.F.);
#265=ORIENTED_EDGE('',*,*,#338,.T.);
#266=ORIENTED_EDGE('',*,*,#338,.F.);
#267=ORIENTED_EDGE('',*,*,#339,.T.);
#268=ORIENTED_EDGE('',*,*,#339,.F.);
#269=ORIENTED_EDGE('',*,*,#340,.T.);
#270=ORIENTED_EDGE('',*,*,#341,.T.);
#271=ORIENTED_EDGE('',*,*,#330,.T.);
#272=ORIENTED_EDGE('',*,*,#332,.F.);
#273=ORIENTED_EDGE('',*,*,#342,.F.);
#274=ORIENTED_EDGE('',*,*,#343,.T.);
#275=ORIENTED_EDGE('',*,*,#343,.F.);
#276=ORIENTED_EDGE('',*,*,#344,.T.);
#277=ORIENTED_EDGE('',*,*,#344,.F.);
#278=ORIENTED_EDGE('',*,*,#345,.T.);
#279=ORIENTED_EDGE('',*,*,#345,.F.);
#280=ORIENTED_EDGE('',*,*,#346,.F.);
#281=ORIENTED_EDGE('',*,*,#342,.T.);
#282=ORIENTED_EDGE('',*,*,#346,.T.);
#283=ORIENTED_EDGE('',*,*,#333,.F.);
#284=ORIENTED_EDGE('',*,*,#331,.F.);
#285=ORIENTED_EDGE('',*,*,#341,.F.);
#286=ORIENTED_EDGE('',*,*,#340,.F.);
#287=ORIENTED_EDGE('',*,*,#327,.F.);
#288=ORIENTED_EDGE('',*,*,#329,.F.);
#289=VERTEX_POINT('',#549);
#290=VERTEX_POINT('',#551);
#291=VERTEX_POINT('',#554);
#292=VERTEX_POINT('',#557);
#293=VERTEX_POINT('',#560);
#294=VERTEX_POINT('',#563);
#295=VERTEX_POINT('',#566);
#296=VERTEX_POINT('',#569);
#297=VERTEX_POINT('',#573);
#298=VERTEX_POINT('',#575);
#299=VERTEX_POINT('',#579);
#300=VERTEX_POINT('',#581);
#301=VERTEX_POINT('',#584);
#302=VERTEX_POINT('',#587);
#303=VERTEX_POINT('',#589);
#304=VERTEX_POINT('',#592);
#305=VERTEX_POINT('',#594);
#306=VERTEX_POINT('',#597);
#307=VERTEX_POINT('',#600);
#308=VERTEX_POINT('',#603);
#309=VERTEX_POINT('',#606);
#310=VERTEX_POINT('',#609);
#311=VERTEX_POINT('',#612);
#312=VERTEX_POINT('',#615);
#313=VERTEX_POINT('',#618);
#314=VERTEX_POINT('',#621);
#315=VERTEX_POINT('',#622);
#316=VERTEX_POINT('',#625);
#317=VERTEX_POINT('',#628);
#318=VERTEX_POINT('',#631);
#319=EDGE_CURVE('',#289,#289,#347,.T.);
#320=EDGE_CURVE('',#290,#290,#348,.T.);
#321=EDGE_CURVE('',#291,#291,#349,.T.);
#322=EDGE_CURVE('',#292,#292,#350,.T.);
#323=EDGE_CURVE('',#293,#293,#351,.T.);
#324=EDGE_CURVE('',#294,#294,#352,.T.);
#325=EDGE_CURVE('',#295,#295,#353,.T.);
#326=EDGE_CURVE('',#296,#296,#354,.T.);
#327=EDGE_CURVE('',#297,#297,#355,.T.);
#328=EDGE_CURVE('',#298,#298,#356,.T.);
#329=EDGE_CURVE('',#299,#299,#357,.T.);
#330=EDGE_CURVE('',#300,#300,#358,.T.);
#331=EDGE_CURVE('',#302,#302,#359,.T.);
#332=EDGE_CURVE('',#303,#303,#360,.T.);
#333=EDGE_CURVE('',#304,#304,#361,.T.);
#334=EDGE_CURVE('',#305,#305,#362,.T.);
#335=EDGE_CURVE('',#306,#306,#363,.T.);
#336=EDGE_CURVE('',#307,#307,#364,.T.);
#337=EDGE_CURVE('',#308,#308,#365,.T.);
#338=EDGE_CURVE('',#309,#309,#366,.T.);
#339=EDGE_CURVE('',#310,#310,#367,.T.);
#340=EDGE_CURVE('',#311,#311,#368,.T.);
#341=EDGE_CURVE('',#312,#312,#369,.T.);
#342=EDGE_CURVE('',#313,#313,#370,.T.);
#343=EDGE_CURVE('',#314,#314,#371,.T.);
#344=EDGE_CURVE('',#316,#316,#372,.T.);
#345=EDGE_CURVE('',#317,#317,#373,.T.);
#346=EDGE_CURVE('',#318,#318,#374,.T.);
#347=CIRCLE('',#376,11.6029437251495);
#348=CIRCLE('',#377,12.734314575048);
#349=CIRCLE('',#379,5.99912248424614);
#350=CIRCLE('',#381,5.99912248424608);
#351=CIRCLE('',#383,11.6029437251495);
#352=CIRCLE('',#385,12.734314575048);
#353=CIRCLE('',#387,18.3381358159514);
#354=CIRCLE('',#389,18.3381358159514);
#355=CIRCLE('',#392,17.5660384203266);
#356=CIRCLE('',#393,12.5202172992783);
#357=CIRCLE('',#394,17.5660384203266);
#358=CIRCLE('',#395,11.5);
#359=CIRCLE('',#397,8.5);
#360=CIRCLE('',#398,8.);
#361=CIRCLE('',#400,9.5);
#362=CIRCLE('',#401,9.5);
#363=CIRCLE('',#403,10.0551286503229);
#364=CIRCLE('',#405,10.6324197454928);
#365=CIRCLE('',#407,10.4);
#366=CIRCLE('',#409,10.4);
#367=CIRCLE('',#411,10.8834158738275);
#368=CIRCLE('',#413,12.0379980641674);
#369=CIRCLE('',#415,11.5);
#370=CIRCLE('',#417,7.25);
#371=CIRCLE('',#419,5.15);
#372=CIRCLE('',#421,5.15);
#373=CIRCLE('',#423,6.5);
#374=CIRCLE('',#425,6.5);
#375=AXIS2_PLACEMENT_3D('',#547,#431,#432);
#376=AXIS2_PLACEMENT_3D('',#548,#433,#434);
#377=AXIS2_PLACEMENT_3D('',#550,#435,#436);
#378=AXIS2_PLACEMENT_3D('',#552,#437,#438);
#379=AXIS2_PLACEMENT_3D('',#553,#439,#440);
#380=AXIS2_PLACEMENT_3D('',#555,#441,#442);
#381=AXIS2_PLACEMENT_3D('',#556,#443,#444);
#382=AXIS2_PLACEMENT_3D('',#558,#445,#446);
#383=AXIS2_PLACEMENT_3D('',#559,#447,#448);
#384=AXIS2_PLACEMENT_3D('',#561,#449,#450);
#385=AXIS2_PLACEMENT_3D('',#562,#451,#452);
#386=AXIS2_PLACEMENT_3D('',#564,#453,#454);
#387=AXIS2_PLACEMENT_3D('',#565,#455,#456);
#388=AXIS2_PLACEMENT_3D('',#567,#457,#458);
#389=AXIS2_PLACEMENT_3D('',#568,#459,#460);
#390=AXIS2_PLACEMENT_3D('',#570,#461,#462);
#391=AXIS2_PLACEMENT_3D('',#571,#463,#464);
#392=AXIS2_PLACEMENT_3D('',#572,#465,#466);
#393=AXIS2_PLACEMENT_3D('',#574,#467,#468);
#394=AXIS2_PLACEMENT_3D('',#578,#471,#472);
#395=AXIS2_PLACEMENT_3D('',#580,#473,#474);
#396=AXIS2_PLACEMENT_3D('',#585,#477,#478);
#397=AXIS2_PLACEMENT_3D('',#586,#479,#480);
#398=AXIS2_PLACEMENT_3D('',#588,#481,#482);
#399=AXIS2_PLACEMENT_3D('',#590,#483,#484);
#400=AXIS2_PLACEMENT_3D('',#591,#485,#486);
#401=AXIS2_PLACEMENT_3D('',#593,#487,#488);
#402=AXIS2_PLACEMENT_3D('',#595,#489,#490);
#403=AXIS2_PLACEMENT_3D('',#596,#491,#492);
#404=AXIS2_PLACEMENT_3D('',#598,#493,#494);
#405=AXIS2_PLACEMENT_3D('',#599,#495,#496);
#406=AXIS2_PLACEMENT_3D('',#601,#497,#498);
#407=AXIS2_PLACEMENT_3D('',#602,#499,#500);
#408=AXIS2_PLACEMENT_3D('',#604,#501,#502);
#409=AXIS2_PLACEMENT_3D('',#605,#503,#504);
#410=AXIS2_PLACEMENT_3D('',#607,#505,#506);
#411=AXIS2_PLACEMENT_3D('',#608,#507,#508);
#412=AXIS2_PLACEMENT_3D('',#610,#509,#510);
#413=AXIS2_PLACEMENT_3D('',#611,#511,#512);
#414=AXIS2_PLACEMENT_3D('',#613,#513,#514);
#415=AXIS2_PLACEMENT_3D('',#614,#515,#516);
#416=AXIS2_PLACEMENT_3D('',#616,#517,#518);
#417=AXIS2_PLACEMENT_3D('',#617,#519,#520);
#418=AXIS2_PLACEMENT_3D('',#619,#521,#522);
#419=AXIS2_PLACEMENT_3D('',#620,#523,#524);
#420=AXIS2_PLACEMENT_3D('',#623,#525,#526);
#421=AXIS2_PLACEMENT_3D('',#624,#527,#528);
#422=AXIS2_PLACEMENT_3D('',#626,#529,#530);
#423=AXIS2_PLACEMENT_3D('',#627,#531,#532);
#424=AXIS2_PLACEMENT_3D('',#629,#533,#534);
#425=AXIS2_PLACEMENT_3D('',#630,#535,#536);
#426=AXIS2_PLACEMENT_3D('',#632,#537,#538);
#427=AXIS2_PLACEMENT_3D('',#633,#539,#540);
#428=AXIS2_PLACEMENT_3D('',#634,#541,#542);
#429=AXIS2_PLACEMENT_3D('',#635,#543,#544);
#430=AXIS2_PLACEMENT_3D('',#636,#545,#546);
#431=DIRECTION('',(0.,0.,1.));
#432=DIRECTION('',(1.,0.,0.));
#433=DIRECTION('',(0.,0.,-1.));
#434=DIRECTION('',(-1.,0.,0.));
#435=DIRECTION('',(0.,0.,-1.));
#436=DIRECTION('',(-1.,0.,0.));
#437=DIRECTION('',(0.,0.,-1.));
#438=DIRECTION('',(-1.,0.,0.));
#439=DIRECTION('',(0.,0.,-1.));
#440=DIRECTION('',(-1.,0.,0.));
#441=DIRECTION('',(0.,0.,-1.));
#442=DIRECTION('',(-1.,0.,1.02889586476815E-16));
#443=DIRECTION('',(0.,0.,1.));
#444=DIRECTION('',(-1.,0.,0.));
#445=DIRECTION('',(0.,0.,-1.));
#446=DIRECTION('',(-1.,0.,0.));
#447=DIRECTION('',(0.,0.,-1.));
#448=DIRECTION('',(-1.,0.,0.));
#449=DIRECTION('',(0.,0.,1.));
#450=DIRECTION('',(1.,0.,4.13850892042857E-17));
#451=DIRECTION('',(0.,0.,-1.));
#452=DIRECTION('',(-1.,0.,0.));
#453=DIRECTION('',(0.,0.,-1.));
#454=DIRECTION('',(-1.,0.,0.));
#455=DIRECTION('',(0.,0.,-1.));
#456=DIRECTION('',(-1.,0.,0.));
#457=DIRECTION('',(0.,0.,-1.));
#458=DIRECTION('',(-1.,0.,-3.42582146375619E-18));
#459=DIRECTION('',(0.,0.,1.));
#460=DIRECTION('',(-1.,0.,0.));
#461=DIRECTION('',(0.,0.,-1.));
#462=DIRECTION('',(-1.,0.,0.));
#463=DIRECTION('',(0.,0.,1.));
#464=DIRECTION('',(1.,0.,-2.72557558628499E-17));
#465=DIRECTION('',(0.,0.,-1.));
#466=DIRECTION('',(1.,0.,0.));
#467=DIRECTION('',(0.,0.,1.));
#468=DIRECTION('',(1.,0.,0.));
#469=DIRECTION('',(0.,-0.707106781186548,0.707106781186547));
#470=DIRECTION('',(0.,0.,1.));
#471=DIRECTION('',(0.,0.,1.));
#472=DIRECTION('',(1.,0.,0.));
#473=DIRECTION('',(0.,0.,1.));
#474=DIRECTION('',(1.,0.,0.));
#475=DIRECTION('',(0.,0.707106781186547,0.707106781186548));
#476=DIRECTION('',(0.,0.,1.));
#477=DIRECTION('',(0.,0.,-1.));
#478=DIRECTION('',(-1.,0.,-7.8919692020133E-18));
#479=DIRECTION('',(0.,0.,1.));
#480=DIRECTION('',(-1.,0.,0.));
#481=DIRECTION('',(0.,0.,-1.));
#482=DIRECTION('',(-1.,0.,0.));
#483=DIRECTION('',(0.,0.,-1.));
#484=DIRECTION('',(-1.,0.,0.));
#485=DIRECTION('',(0.,0.,-1.));
#486=DIRECTION('',(-1.,0.,0.));
#487=DIRECTION('',(0.,0.,1.));
#488=DIRECTION('',(1.,0.,0.));
#489=DIRECTION('',(0.,0.,1.));
#490=DIRECTION('',(1.,0.,0.));
#491=DIRECTION('',(0.,0.,1.));
#492=DIRECTION('',(1.,0.,0.));
#493=DIRECTION('',(0.,0.,-1.));
#494=DIRECTION('',(-1.,0.,0.));
#495=DIRECTION('',(0.,0.,1.));
#496=DIRECTION('',(1.,0.,0.));
#497=DIRECTION('',(0.,0.,-1.));
#498=DIRECTION('',(-1.,0.,1.35934772868032E-15));
#499=DIRECTION('',(0.,0.,1.));
#500=DIRECTION('',(1.,0.,0.));
#501=DIRECTION('',(0.,0.,1.));
#502=DIRECTION('',(1.,0.,0.));
#503=DIRECTION('',(0.,0.,1.));
#504=DIRECTION('',(1.,0.,0.));
#505=DIRECTION('',(0.,0.,1.));
#506=DIRECTION('',(1.,0.,0.));
#507=DIRECTION('',(0.,0.,1.));
#508=DIRECTION('',(1.,0.,0.));
#509=DIRECTION('',(0.,0.,-1.));
#510=DIRECTION('',(-1.,0.,0.));
#511=DIRECTION('',(0.,0.,1.));
#512=DIRECTION('',(1.,0.,0.));
#513=DIRECTION('',(0.,0.,-1.));
#514=DIRECTION('',(-1.,0.,2.98948423926658E-15));
#515=DIRECTION('',(0.,0.,-1.));
#516=DIRECTION('',(1.,0.,0.));
#517=DIRECTION('',(0.,0.,1.));
#518=DIRECTION('',(1.,0.,0.));
#519=DIRECTION('',(0.,0.,1.));
#520=DIRECTION('',(1.,0.,0.));
#521=DIRECTION('',(0.,0.,1.));
#522=DIRECTION('',(1.,0.,-1.59510144731968E-17));
#523=DIRECTION('',(0.,0.,1.));
#524=DIRECTION('',(-1.,0.,0.));
#525=DIRECTION('',(0.,0.,1.));
#526=DIRECTION('',(1.,0.,3.59486622750082E-17));
#527=DIRECTION('',(0.,0.,1.));
#528=DIRECTION('',(-1.,0.,0.));
#529=DIRECTION('',(0.,0.,-1.));
#530=DIRECTION('',(-1.,0.,0.));
#531=DIRECTION('',(0.,0.,1.));
#532=DIRECTION('',(-1.,0.,0.));
#533=DIRECTION('',(0.,0.,-1.));
#534=DIRECTION('',(-1.,0.,0.));
#535=DIRECTION('',(0.,0.,-1.));
#536=DIRECTION('',(-1.,0.,0.));
#537=DIRECTION('',(0.,0.,-1.));
#538=DIRECTION('',(-1.,0.,0.));
#539=DIRECTION('',(0.,0.,1.));
#540=DIRECTION('',(1.,0.,-4.74575751740481E-17));
#541=DIRECTION('',(0.,0.,-1.));
#542=DIRECTION('',(-1.,0.,0.));
#543=DIRECTION('',(0.,0.,1.));
#544=DIRECTION('',(1.,0.,0.));
#545=DIRECTION('',(0.,0.,1.));
#546=DIRECTION('',(1.,0.,0.));
#547=CARTESIAN_POINT('',(0.,0.,0.));
#548=CARTESIAN_POINT('',(0.,0.,-42.7656854249466));
#549=CARTESIAN_POINT('',(-11.6029437251495,0.,-42.7656854249466));
#550=CARTESIAN_POINT('',(0.,0.,-42.7656854249466));
#551=CARTESIAN_POINT('',(-12.734314575048,0.,-42.7656854249466));
#552=CARTESIAN_POINT('',(0.,0.,-42.1999999999974));
#553=CARTESIAN_POINT('',(0.,0.,-37.1618641840432));
#554=CARTESIAN_POINT('',(-5.99912248424614,0.,-37.1618641840432));
#555=CARTESIAN_POINT('',(0.,0.,-42.7656854249466));
#556=CARTESIAN_POINT('',(0.,0.,-36.0304933341448));
#557=CARTESIAN_POINT('',(-5.99912248424608,0.,-36.0304933341448));
#558=CARTESIAN_POINT('',(0.,0.,-36.596178759094));
#559=CARTESIAN_POINT('',(0.,0.,-30.4266720932413));
#560=CARTESIAN_POINT('',(-11.6029437251495,0.,-30.4266720932413));
#561=CARTESIAN_POINT('',(0.,0.,-36.0304933341448));
#562=CARTESIAN_POINT('',(0.,0.,-30.4266720932413));
#563=CARTESIAN_POINT('',(-12.734314575048,0.,-30.4266720932413));
#564=CARTESIAN_POINT('',(0.,0.,-30.9923575181906));
#565=CARTESIAN_POINT('',(0.,0.,-36.0304933341447));
#566=CARTESIAN_POINT('',(-18.3381358159514,0.,-36.0304933341447));
#567=CARTESIAN_POINT('',(0.,0.,-30.4266720932413));
#568=CARTESIAN_POINT('',(0.,0.,-37.1618641840432));
#569=CARTESIAN_POINT('',(-18.3381358159514,0.,-37.1618641840432));
#570=CARTESIAN_POINT('',(0.,0.,-36.596178759094));
#571=CARTESIAN_POINT('',(0.,0.,-37.1618641840432));
#572=CARTESIAN_POINT('',(0.,0.,-36.8099852757592));
#573=CARTESIAN_POINT('',(17.5660384203266,0.,-36.8099852757592));
#574=CARTESIAN_POINT('',(0.,0.,-41.9761439482242));
#575=CARTESIAN_POINT('',(12.5202172992783,0.,-41.9761439482242));
#576=CARTESIAN_POINT('',(3.18,-8.85189521155298,-45.2338912260739));
#577=CARTESIAN_POINT('',(0.,0.,-43.));
#578=CARTESIAN_POINT('',(0.,0.,-36.382372242434));
#579=CARTESIAN_POINT('',(17.5660384203266,0.,-36.382372242434));
#580=CARTESIAN_POINT('',(0.,0.,-30.158159201737));
#581=CARTESIAN_POINT('',(11.5,0.,-30.158159201737));
#582=CARTESIAN_POINT('',(3.18,-17.4896076785303,-36.5961787590966));
#583=CARTESIAN_POINT('',(0.,0.,-43.));
#584=CARTESIAN_POINT('',(0.,6.13941552121146E-18,-40.8807668696562));
#585=CARTESIAN_POINT('',(0.,0.,-40.8807668696562));
#586=CARTESIAN_POINT('',(0.,0.,81.));
#587=CARTESIAN_POINT('',(-8.5,0.,81.));
#588=CARTESIAN_POINT('',(8.67361737988404E-16,3.46944695195361E-15,81.));
#589=CARTESIAN_POINT('',(-8.,3.46944695195361E-15,81.));
#590=CARTESIAN_POINT('',(0.,-9.5,81.));
#591=CARTESIAN_POINT('',(0.,0.,80.));
#592=CARTESIAN_POINT('',(-9.5,0.,80.));
#593=CARTESIAN_POINT('',(0.,0.,74.));
#594=CARTESIAN_POINT('',(9.5,0.,74.));
#595=CARTESIAN_POINT('',(0.,0.,-43.));
#596=CARTESIAN_POINT('',(0.,0.,74.));
#597=CARTESIAN_POINT('',(10.0551286503229,0.,74.));
#598=CARTESIAN_POINT('',(0.,-10.0551286503229,74.));
#599=CARTESIAN_POINT('',(0.,0.,51.));
#600=CARTESIAN_POINT('',(10.6324197454928,0.,51.));
#601=CARTESIAN_POINT('',(0.,0.,51.));
#602=CARTESIAN_POINT('',(0.,0.,51.));
#603=CARTESIAN_POINT('',(10.4,0.,51.));
#604=CARTESIAN_POINT('',(0.,-10.4,51.));
#605=CARTESIAN_POINT('',(0.,0.,41.));
#606=CARTESIAN_POINT('',(10.4,0.,41.));
#607=CARTESIAN_POINT('',(0.,0.,-43.));
#608=CARTESIAN_POINT('',(0.,0.,41.));
#609=CARTESIAN_POINT('',(10.8834158738275,0.,41.));
#610=CARTESIAN_POINT('',(0.,-10.8834158738275,41.));
#611=CARTESIAN_POINT('',(0.,0.,-5.));
#612=CARTESIAN_POINT('',(12.0379980641674,0.,-5.));
#613=CARTESIAN_POINT('',(0.,0.,-5.));
#614=CARTESIAN_POINT('',(0.,0.,-5.755880272014));
#615=CARTESIAN_POINT('',(11.5,0.,-5.755880272014));
#616=CARTESIAN_POINT('',(0.,0.,-43.));
#617=CARTESIAN_POINT('',(8.67361737988404E-16,3.46944695195361E-15,80.5669872981078));
#618=CARTESIAN_POINT('',(7.25,3.46944695195361E-15,80.5669872981078));
#619=CARTESIAN_POINT('',(8.67361737988404E-16,3.46944695195361E-15,81.));
#620=CARTESIAN_POINT('',(0.,0.,42.));
#621=CARTESIAN_POINT('',(-5.15,0.,42.));
#622=CARTESIAN_POINT('',(0.,0.,39.0266461136734));
#623=CARTESIAN_POINT('',(0.,0.,42.));
#624=CARTESIAN_POINT('',(0.,0.,73.));
#625=CARTESIAN_POINT('',(-5.15,0.,73.));
#626=CARTESIAN_POINT('',(0.,0.,42.));
#627=CARTESIAN_POINT('',(0.,0.,73.));
#628=CARTESIAN_POINT('',(-6.5,0.,73.));
#629=CARTESIAN_POINT('',(0.,0.,73.));
#630=CARTESIAN_POINT('',(0.,0.,79.2679491924311));
#631=CARTESIAN_POINT('',(-6.5,0.,79.2679491924311));
#632=CARTESIAN_POINT('',(0.,0.,81.));
#633=CARTESIAN_POINT('',(0.,0.,81.));
#634=CARTESIAN_POINT('',(0.,0.,80.));
#635=CARTESIAN_POINT('',(0.,0.,-5.755880272014));
#636=CARTESIAN_POINT('',(0.,0.,-36.382372242434));
#637=MECHANICAL_DESIGN_GEOMETRIC_PRESENTATION_REPRESENTATION('',(#54,#55),
#638);
#638=(
GEOMETRIC_REPRESENTATION_CONTEXT(3)
GLOBAL_UNCERTAINTY_ASSIGNED_CONTEXT((#639))
GLOBAL_UNIT_ASSIGNED_CONTEXT((#645,#641,#640))
REPRESENTATION_CONTEXT('25N3R043E03_SSD09_A_SIM',
'TOP_LEVEL_ASSEMBLY_PART')
);
#639=UNCERTAINTY_MEASURE_WITH_UNIT(LENGTH_MEASURE(2.E-5),#645,
'DISTANCE_ACCURACY_VALUE','Maximum Tolerance applied to model');
#640=(
NAMED_UNIT(*)
SI_UNIT($,.STERADIAN.)
SOLID_ANGLE_UNIT()
);
#641=(
CONVERSION_BASED_UNIT('DEGREE',#643)
NAMED_UNIT(#642)
PLANE_ANGLE_UNIT()
);
#642=DIMENSIONAL_EXPONENTS(0.,0.,0.,0.,0.,0.,0.);
#643=PLANE_ANGLE_MEASURE_WITH_UNIT(PLANE_ANGLE_MEASURE(0.0174532925),#644);
#644=(
NAMED_UNIT(*)
PLANE_ANGLE_UNIT()
SI_UNIT($,.RADIAN.)
);
#645=(
LENGTH_UNIT()
NAMED_UNIT(*)
SI_UNIT(.MILLI.,.METRE.)
);
ENDSEC;
END-ISO-10303-21;
