ISO-10303-21;
HEADER;
/* Generated by software containing ST-Developer
 * from STEP Tools, Inc. (www.steptools.com) 
 */
/* OPTION: using custom schema-name function */

FILE_DESCRIPTION(
/* description */ (''),
/* implementation_level */ '2;1');

FILE_NAME(
/* name */ '25N3R042B25-SSO09-C.stp',
/* time_stamp */ '2020-01-08T12:49:34+01:00',
/* author */ (''),
/* organization */ (''),
/* preprocessor_version */ 'ST-DEVELOPER v16.7',
/* originating_system */ 'SIEMENS PLM Software NX 12.0',
/* authorisation */ '');

FILE_SCHEMA (('AUTOMOTIVE_DESIGN { 1 0 10303 214 3 1 1 1 }'));
ENDSEC;

DATA;
#10=PROPERTY_DEFINITION_REPRESENTATION(#14,#12);
#11=PROPERTY_DEFINITION_REPRESENTATION(#15,#13);
#12=REPRESENTATION('',(#16),#412);
#13=REPRESENTATION('',(#17),#412);
#14=PROPERTY_DEFINITION('pmi validation property','',#21);
#15=PROPERTY_DEFINITION('pmi validation property','',#21);
#16=VALUE_REPRESENTATION_ITEM('number of annotations',COUNT_MEASURE(0.));
#17=VALUE_REPRESENTATION_ITEM('number of views',COUNT_MEASURE(0.));
#18=SHAPE_REPRESENTATION_RELATIONSHIP('None',
'relationship between wq702BE00ED2ryoy-None and wq702BE00ED2ryoy-None',
#30,#19);
#19=ADVANCED_BREP_SHAPE_REPRESENTATION('wq702BE00ED2ryoy-None',(#49,#50),
#412);
#20=SHAPE_DEFINITION_REPRESENTATION(#21,#30);
#21=PRODUCT_DEFINITION_SHAPE('','',#22);
#22=PRODUCT_DEFINITION(' ','',#24,#23);
#23=PRODUCT_DEFINITION_CONTEXT('part definition',#29,'design');
#24=PRODUCT_DEFINITION_FORMATION_WITH_SPECIFIED_SOURCE(' ',' ',#26,
 .NOT_KNOWN.);
#25=PRODUCT_RELATED_PRODUCT_CATEGORY('part','',(#26));
#26=PRODUCT('wq702BE00ED2ryoy','wq702BE00ED2ryoy',' ',(#27));
#27=PRODUCT_CONTEXT(' ',#29,'mechanical');
#28=APPLICATION_PROTOCOL_DEFINITION('international standard',
'automotive_design',2010,#29);
#29=APPLICATION_CONTEXT(
'core data for automotive mechanical design processes');
#30=SHAPE_REPRESENTATION('wq702BE00ED2ryoy-None',(#248),#412);
#31=PRESENTATION_LAYER_ASSIGNMENT('14','Layer 14',(#49));
#32=PRESENTATION_LAYER_ASSIGNMENT('96','Layer 96',(#50));
#33=STYLED_ITEM('',(#35),#49);
#34=STYLED_ITEM('',(#36),#50);
#35=PRESENTATION_STYLE_ASSIGNMENT((#37));
#36=PRESENTATION_STYLE_ASSIGNMENT((#38));
#37=SURFACE_STYLE_USAGE(.BOTH.,#39);
#38=SURFACE_STYLE_USAGE(.BOTH.,#40);
#39=SURFACE_SIDE_STYLE('',(#41));
#40=SURFACE_SIDE_STYLE('',(#42));
#41=SURFACE_STYLE_FILL_AREA(#43);
#42=SURFACE_STYLE_FILL_AREA(#44);
#43=FILL_AREA_STYLE('',(#45));
#44=FILL_AREA_STYLE('',(#46));
#45=FILL_AREA_STYLE_COLOUR('',#47);
#46=FILL_AREA_STYLE_COLOUR('',#48);
#47=COLOUR_RGB('Silver Gray',0.6,0.6,0.6);
#48=COLOUR_RGB('Light Gray',0.8,0.8,0.8);
#49=MANIFOLD_SOLID_BREP('',#51);
#50=MANIFOLD_SOLID_BREP('',#52);
#51=CLOSED_SHELL('',(#60,#61,#62,#63,#64,#65,#66,#67,#68,#69));
#52=CLOSED_SHELL('',(#70,#71,#72,#73,#74,#75,#76,#77));
#53=TOROIDAL_SURFACE('',#266,13.0499079065837,0.800000000000001);
#54=TOROIDAL_SURFACE('',#272,6.16402886805331,0.400000000000004);
#55=TOROIDAL_SURFACE('',#276,12.33,0.4);
#56=TOROIDAL_SURFACE('',#280,18.4959711319467,0.399999999999984);
#57=TOROIDAL_SURFACE('',#283,12.33,0.399999999999999);
#58=VERTEX_LOOP('',#199);
#59=VERTEX_LOOP('',#201);
#60=ADVANCED_FACE('',(#91,#92),#78,.T.);
#61=ADVANCED_FACE('',(#93,#94),#79,.T.);
#62=ADVANCED_FACE('',(#95,#96),#80,.F.);
#63=ADVANCED_FACE('',(#97,#98),#81,.F.);
#64=ADVANCED_FACE('',(#99,#100),#82,.T.);
#65=ADVANCED_FACE('',(#101,#102),#83,.T.);
#66=ADVANCED_FACE('',(#103,#104),#84,.T.);
#67=ADVANCED_FACE('',(#105,#106),#85,.T.);
#68=ADVANCED_FACE('',(#107,#108),#53,.F.);
#69=ADVANCED_FACE('',(#109,#110),#86,.T.);
#70=ADVANCED_FACE('',(#111,#112),#87,.F.);
#71=ADVANCED_FACE('',(#113,#114),#54,.T.);
#72=ADVANCED_FACE('',(#115,#116),#88,.F.);
#73=ADVANCED_FACE('',(#117,#118),#55,.T.);
#74=ADVANCED_FACE('',(#119,#120),#89,.T.);
#75=ADVANCED_FACE('',(#121,#122),#56,.T.);
#76=ADVANCED_FACE('',(#123,#124),#90,.T.);
#77=ADVANCED_FACE('',(#125,#126),#57,.T.);
#78=CONICAL_SURFACE('',#251,12.4999998434979,0.00906657246660092);
#79=CONICAL_SURFACE('',#254,12.5131338913804,89.9909334275331);
#80=CONICAL_SURFACE('',#255,0.013134047882785,0.00906657246681507);
#81=CONICAL_SURFACE('',#257,1.38777878336639E-14,89.9909334275332);
#82=CONICAL_SURFACE('',#259,13.2999998334814,43.0090665724669);
#83=CONICAL_SURFACE('',#261,18.1975789426746,0.00906657246431033);
#84=CONICAL_SURFACE('',#263,18.1976454041217,46.9909334275332);
#85=CONICAL_SURFACE('',#265,12.2453048201134,0.00906657246681591);
#86=CONICAL_SURFACE('',#267,12.5129756498396,44.990933427584);
#87=CONICAL_SURFACE('',#270,12.0471572875254,45.);
#88=CONICAL_SURFACE('',#274,5.88118615557869,45.0000000000001);
#89=CONICAL_SURFACE('',#278,12.6128427124746,44.9999999999999);
#90=CONICAL_SURFACE('',#282,18.7788138444213,45.);
#91=FACE_BOUND('',#127,.T.);
#92=FACE_BOUND('',#128,.T.);
#93=FACE_BOUND('',#129,.T.);
#94=FACE_BOUND('',#130,.T.);
#95=FACE_BOUND('',#58,.T.);
#96=FACE_BOUND('',#131,.T.);
#97=FACE_BOUND('',#132,.T.);
#98=FACE_BOUND('',#59,.T.);
#99=FACE_BOUND('',#133,.T.);
#100=FACE_BOUND('',#134,.T.);
#101=FACE_BOUND('',#135,.T.);
#102=FACE_BOUND('',#136,.T.);
#103=FACE_BOUND('',#137,.T.);
#104=FACE_BOUND('',#138,.T.);
#105=FACE_BOUND('',#139,.T.);
#106=FACE_BOUND('',#140,.T.);
#107=FACE_BOUND('',#141,.T.);
#108=FACE_BOUND('',#142,.T.);
#109=FACE_BOUND('',#143,.T.);
#110=FACE_BOUND('',#144,.T.);
#111=FACE_BOUND('',#145,.T.);
#112=FACE_BOUND('',#146,.T.);
#113=FACE_BOUND('',#147,.T.);
#114=FACE_BOUND('',#148,.T.);
#115=FACE_BOUND('',#149,.T.);
#116=FACE_BOUND('',#150,.T.);
#117=FACE_BOUND('',#151,.T.);
#118=FACE_BOUND('',#152,.T.);
#119=FACE_BOUND('',#153,.T.);
#120=FACE_BOUND('',#154,.T.);
#121=FACE_BOUND('',#155,.T.);
#122=FACE_BOUND('',#156,.T.);
#123=FACE_BOUND('',#157,.T.);
#124=FACE_BOUND('',#158,.T.);
#125=FACE_BOUND('',#159,.T.);
#126=FACE_BOUND('',#160,.T.);
#127=EDGE_LOOP('',(#161));
#128=EDGE_LOOP('',(#162));
#129=EDGE_LOOP('',(#163));
#130=EDGE_LOOP('',(#164));
#131=EDGE_LOOP('',(#165));
#132=EDGE_LOOP('',(#166));
#133=EDGE_LOOP('',(#167));
#134=EDGE_LOOP('',(#168));
#135=EDGE_LOOP('',(#169));
#136=EDGE_LOOP('',(#170));
#137=EDGE_LOOP('',(#171));
#138=EDGE_LOOP('',(#172));
#139=EDGE_LOOP('',(#173));
#140=EDGE_LOOP('',(#174));
#141=EDGE_LOOP('',(#175));
#142=EDGE_LOOP('',(#176));
#143=EDGE_LOOP('',(#177));
#144=EDGE_LOOP('',(#178));
#145=EDGE_LOOP('',(#179));
#146=EDGE_LOOP('',(#180));
#147=EDGE_LOOP('',(#181));
#148=EDGE_LOOP('',(#182));
#149=EDGE_LOOP('',(#183));
#150=EDGE_LOOP('',(#184));
#151=EDGE_LOOP('',(#185));
#152=EDGE_LOOP('',(#186));
#153=EDGE_LOOP('',(#187));
#154=EDGE_LOOP('',(#188));
#155=EDGE_LOOP('',(#189));
#156=EDGE_LOOP('',(#190));
#157=EDGE_LOOP('',(#191));
#158=EDGE_LOOP('',(#192));
#159=EDGE_LOOP('',(#193));
#160=EDGE_LOOP('',(#194));
#161=ORIENTED_EDGE('',*,*,#214,.T.);
#162=ORIENTED_EDGE('',*,*,#215,.F.);
#163=ORIENTED_EDGE('',*,*,#216,.T.);
#164=ORIENTED_EDGE('',*,*,#217,.T.);
#165=ORIENTED_EDGE('',*,*,#217,.F.);
#166=ORIENTED_EDGE('',*,*,#218,.T.);
#167=ORIENTED_EDGE('',*,*,#219,.T.);
#168=ORIENTED_EDGE('',*,*,#218,.F.);
#169=ORIENTED_EDGE('',*,*,#220,.T.);
#170=ORIENTED_EDGE('',*,*,#219,.F.);
#171=ORIENTED_EDGE('',*,*,#221,.T.);
#172=ORIENTED_EDGE('',*,*,#220,.F.);
#173=ORIENTED_EDGE('',*,*,#222,.T.);
#174=ORIENTED_EDGE('',*,*,#221,.F.);
#175=ORIENTED_EDGE('',*,*,#215,.T.);
#176=ORIENTED_EDGE('',*,*,#222,.F.);
#177=ORIENTED_EDGE('',*,*,#216,.F.);
#178=ORIENTED_EDGE('',*,*,#214,.F.);
#179=ORIENTED_EDGE('',*,*,#223,.T.);
#180=ORIENTED_EDGE('',*,*,#224,.F.);
#181=ORIENTED_EDGE('',*,*,#225,.T.);
#182=ORIENTED_EDGE('',*,*,#223,.F.);
#183=ORIENTED_EDGE('',*,*,#226,.T.);
#184=ORIENTED_EDGE('',*,*,#225,.F.);
#185=ORIENTED_EDGE('',*,*,#227,.T.);
#186=ORIENTED_EDGE('',*,*,#226,.F.);
#187=ORIENTED_EDGE('',*,*,#228,.T.);
#188=ORIENTED_EDGE('',*,*,#227,.F.);
#189=ORIENTED_EDGE('',*,*,#229,.T.);
#190=ORIENTED_EDGE('',*,*,#228,.F.);
#191=ORIENTED_EDGE('',*,*,#230,.T.);
#192=ORIENTED_EDGE('',*,*,#229,.F.);
#193=ORIENTED_EDGE('',*,*,#224,.T.);
#194=ORIENTED_EDGE('',*,*,#230,.F.);
#195=VERTEX_POINT('',#358);
#196=VERTEX_POINT('',#360);
#197=VERTEX_POINT('',#363);
#198=VERTEX_POINT('',#365);
#199=VERTEX_POINT('',#367);
#200=VERTEX_POINT('',#370);
#201=VERTEX_POINT('',#371);
#202=VERTEX_POINT('',#374);
#203=VERTEX_POINT('',#377);
#204=VERTEX_POINT('',#380);
#205=VERTEX_POINT('',#383);
#206=VERTEX_POINT('',#388);
#207=VERTEX_POINT('',#390);
#208=VERTEX_POINT('',#393);
#209=VERTEX_POINT('',#396);
#210=VERTEX_POINT('',#399);
#211=VERTEX_POINT('',#402);
#212=VERTEX_POINT('',#405);
#213=VERTEX_POINT('',#408);
#214=EDGE_CURVE('',#195,#195,#231,.T.);
#215=EDGE_CURVE('',#196,#196,#232,.T.);
#216=EDGE_CURVE('',#197,#197,#233,.T.);
#217=EDGE_CURVE('',#198,#198,#234,.T.);
#218=EDGE_CURVE('',#200,#200,#235,.T.);
#219=EDGE_CURVE('',#202,#202,#236,.T.);
#220=EDGE_CURVE('',#203,#203,#237,.T.);
#221=EDGE_CURVE('',#204,#204,#238,.T.);
#222=EDGE_CURVE('',#205,#205,#239,.T.);
#223=EDGE_CURVE('',#206,#206,#240,.T.);
#224=EDGE_CURVE('',#207,#207,#241,.T.);
#225=EDGE_CURVE('',#208,#208,#242,.T.);
#226=EDGE_CURVE('',#209,#209,#243,.T.);
#227=EDGE_CURVE('',#210,#210,#244,.T.);
#228=EDGE_CURVE('',#211,#211,#245,.T.);
#229=EDGE_CURVE('',#212,#212,#246,.T.);
#230=EDGE_CURVE('',#213,#213,#247,.T.);
#231=CIRCLE('',#249,12.5129756498396);
#232=CIRCLE('',#250,12.4999998434979);
#233=CIRCLE('',#252,11.5131339039006);
#234=CIRCLE('',#253,0.013134047882785);
#235=CIRCLE('',#256,13.2999998334814);
#236=CIRCLE('',#258,18.1975789426746);
#237=CIRCLE('',#260,18.1976454041217);
#238=CIRCLE('',#262,12.2453048201134);
#239=CIRCLE('',#264,12.2499079165999);
#240=CIRCLE('',#268,5.88118615557869);
#241=CIRCLE('',#269,12.0471572875254);
#242=CIRCLE('',#271,5.88118615557869);
#243=CIRCLE('',#273,12.0471572875254);
#244=CIRCLE('',#275,12.6128427124746);
#245=CIRCLE('',#277,18.7788138444213);
#246=CIRCLE('',#279,18.7788138444213);
#247=CIRCLE('',#281,12.6128427124746);
#248=AXIS2_PLACEMENT_3D('',#356,#284,#285);
#249=AXIS2_PLACEMENT_3D('',#357,#286,#287);
#250=AXIS2_PLACEMENT_3D('',#359,#288,#289);
#251=AXIS2_PLACEMENT_3D('',#361,#290,#291);
#252=AXIS2_PLACEMENT_3D('',#362,#292,#293);
#253=AXIS2_PLACEMENT_3D('',#364,#294,#295);
#254=AXIS2_PLACEMENT_3D('',#366,#296,#297);
#255=AXIS2_PLACEMENT_3D('',#368,#298,#299);
#256=AXIS2_PLACEMENT_3D('',#369,#300,#301);
#257=AXIS2_PLACEMENT_3D('',#372,#302,#303);
#258=AXIS2_PLACEMENT_3D('',#373,#304,#305);
#259=AXIS2_PLACEMENT_3D('',#375,#306,#307);
#260=AXIS2_PLACEMENT_3D('',#376,#308,#309);
#261=AXIS2_PLACEMENT_3D('',#378,#310,#311);
#262=AXIS2_PLACEMENT_3D('',#379,#312,#313);
#263=AXIS2_PLACEMENT_3D('',#381,#314,#315);
#264=AXIS2_PLACEMENT_3D('',#382,#316,#317);
#265=AXIS2_PLACEMENT_3D('',#384,#318,#319);
#266=AXIS2_PLACEMENT_3D('',#385,#320,#321);
#267=AXIS2_PLACEMENT_3D('',#386,#322,#323);
#268=AXIS2_PLACEMENT_3D('',#387,#324,#325);
#269=AXIS2_PLACEMENT_3D('',#389,#326,#327);
#270=AXIS2_PLACEMENT_3D('',#391,#328,#329);
#271=AXIS2_PLACEMENT_3D('',#392,#330,#331);
#272=AXIS2_PLACEMENT_3D('',#394,#332,#333);
#273=AXIS2_PLACEMENT_3D('',#395,#334,#335);
#274=AXIS2_PLACEMENT_3D('',#397,#336,#337);
#275=AXIS2_PLACEMENT_3D('',#398,#338,#339);
#276=AXIS2_PLACEMENT_3D('',#400,#340,#341);
#277=AXIS2_PLACEMENT_3D('',#401,#342,#343);
#278=AXIS2_PLACEMENT_3D('',#403,#344,#345);
#279=AXIS2_PLACEMENT_3D('',#404,#346,#347);
#280=AXIS2_PLACEMENT_3D('',#406,#348,#349);
#281=AXIS2_PLACEMENT_3D('',#407,#350,#351);
#282=AXIS2_PLACEMENT_3D('',#409,#352,#353);
#283=AXIS2_PLACEMENT_3D('',#410,#354,#355);
#284=DIRECTION('',(0.,0.,1.));
#285=DIRECTION('',(1.,0.,0.));
#286=DIRECTION('',(0.,-0.000158241540757478,-0.999999987479807));
#287=DIRECTION('',(0.,0.999999987479807,-0.000158241540757476));
#288=DIRECTION('',(0.,-0.000158241540756183,-0.999999987479807));
#289=DIRECTION('',(0.,0.999999987479807,-0.00015824154075585));
#290=DIRECTION('',(0.,0.000158241540756183,0.999999987479807));
#291=DIRECTION('',(0.,-0.999999987479807,0.000158241540751087));
#292=DIRECTION('',(0.,0.000158241540757478,0.999999987479807));
#293=DIRECTION('',(0.,-0.999999987479807,0.000158241540757478));
#294=DIRECTION('',(0.,-0.000158241540756183,-0.999999987479807));
#295=DIRECTION('',(0.,0.999999987479807,-0.000158241540756183));
#296=DIRECTION('',(0.,-0.000158241540756183,-0.999999987479807));
#297=DIRECTION('',(0.,0.999999987479808,-0.000158241540756183));
#298=DIRECTION('',(0.,0.000158241540756183,0.999999987479807));
#299=DIRECTION('',(0.,-0.999999987479807,0.000158241541310584));
#300=DIRECTION('',(0.,-0.000158241540756183,-0.999999987479807));
#301=DIRECTION('',(0.,0.999999987479807,-0.000158241540756096));
#302=DIRECTION('',(0.,-0.000158241540756183,-0.999999987479807));
#303=DIRECTION('',(0.,0.999999987479807,-0.000158241540756183));
#304=DIRECTION('',(0.,-0.000158241540756183,-0.999999987479807));
#305=DIRECTION('',(0.,0.999999987479807,-0.00015824154075647));
#306=DIRECTION('',(0.,0.000158241540756183,0.999999987479807));
#307=DIRECTION('',(0.,-0.999999987479808,0.000158241540756139));
#308=DIRECTION('',(0.,-0.000158241540756183,-0.999999987479807));
#309=DIRECTION('',(0.,0.999999987479808,-0.000158241540756499));
#310=DIRECTION('',(0.,0.000158241540756183,0.999999987479807));
#311=DIRECTION('',(0.,-0.999999987479807,0.000158241540754281));
#312=DIRECTION('',(0.,-0.000158241540756183,-0.999999987479807));
#313=DIRECTION('',(0.,0.999999987479807,-0.000158241540756027));
#314=DIRECTION('',(0.,-0.000158241540756183,-0.999999987479807));
#315=DIRECTION('',(0.,0.999999987479807,-0.000158241540756252));
#316=DIRECTION('',(0.,-0.000158241540756183,-0.999999987479807));
#317=DIRECTION('',(0.,0.999999987479807,-0.000158241540755643));
#318=DIRECTION('',(0.,0.000158241540756183,0.999999987479807));
#319=DIRECTION('',(0.,-0.999999987479807,0.000158241540754472));
#320=DIRECTION('',(0.,-0.000158241540756183,-0.999999987479807));
#321=DIRECTION('',(0.,0.999999987479807,-0.000158241540755923));
#322=DIRECTION('',(0.,-0.000158241540757478,-0.999999987479807));
#323=DIRECTION('',(0.,0.999999987479807,-0.000158241540757448));
#324=DIRECTION('',(0.,0.,-1.));
#325=DIRECTION('',(-1.,0.,0.));
#326=DIRECTION('',(0.,0.,-1.));
#327=DIRECTION('',(-1.,0.,0.));
#328=DIRECTION('',(0.,0.,1.));
#329=DIRECTION('',(1.,0.,-4.11377702349647E-17));
#330=DIRECTION('',(0.,0.,-1.));
#331=DIRECTION('',(-1.,0.,0.));
#332=DIRECTION('',(0.,0.,-1.));
#333=DIRECTION('',(-1.,0.,0.));
#334=DIRECTION('',(0.,0.,-1.));
#335=DIRECTION('',(-1.,0.,0.));
#336=DIRECTION('',(0.,0.,-1.));
#337=DIRECTION('',(-1.,0.,1.3796647157558E-17));
#338=DIRECTION('',(0.,0.,-1.));
#339=DIRECTION('',(-1.,0.,0.));
#340=DIRECTION('',(0.,0.,-1.));
#341=DIRECTION('',(-1.,0.,0.));
#342=DIRECTION('',(0.,0.,-1.));
#343=DIRECTION('',(-1.,0.,0.));
#344=DIRECTION('',(0.,0.,1.));
#345=DIRECTION('',(1.,0.,-2.74098593706164E-17));
#346=DIRECTION('',(0.,0.,-1.));
#347=DIRECTION('',(-1.,0.,0.));
#348=DIRECTION('',(0.,0.,-1.));
#349=DIRECTION('',(-1.,0.,0.));
#350=DIRECTION('',(0.,0.,-1.));
#351=DIRECTION('',(-1.,0.,0.));
#352=DIRECTION('',(0.,0.,-1.));
#353=DIRECTION('',(-1.,0.,-6.81099156128199E-17));
#354=DIRECTION('',(0.,0.,-1.));
#355=DIRECTION('',(-1.,0.,0.));
#356=CARTESIAN_POINT('',(0.,0.,0.));
#357=CARTESIAN_POINT('',(0.,0.0129754931747529,-1.00198007254448));
#358=CARTESIAN_POINT('',(0.,12.5259509863495,-1.00396014509078));
#359=CARTESIAN_POINT('',(0.,-3.13004793448728E-7,-83.0019780192347));
#360=CARTESIAN_POINT('',(0.,12.4999993739907,-83.0039560384694));
#361=CARTESIAN_POINT('',(0.,-3.13004793448728E-7,-83.0019780192347));
#362=CARTESIAN_POINT('',(0.,0.0131337597539141,-0.00182185604786989));
#363=CARTESIAN_POINT('',(0.,-11.5,3.04967859911806E-14));
#364=CARTESIAN_POINT('',(0.,0.0131340477183442,-2.0783519488754E-6));
#365=CARTESIAN_POINT('',(0.,0.0262680954366883,-4.15670392221277E-6));
#366=CARTESIAN_POINT('',(0.,0.0131337347135289,-0.00198009758664575));
#367=CARTESIAN_POINT('',(0.,0.,-83.));
#368=CARTESIAN_POINT('',(0.,0.0131340477183442,-2.0783519488754E-6));
#369=CARTESIAN_POINT('',(0.,-0.00647123896842694,-123.894690841));
#370=CARTESIAN_POINT('',(0.,13.2935284279945,-123.896795453466));
#371=CARTESIAN_POINT('',(0.,-0.00647090593130351,-123.892586228534));
#372=CARTESIAN_POINT('',(0.,-0.00647090593130351,-123.892586228534));
#373=CARTESIAN_POINT('',(0.,-0.005640416342634,-118.644346263839));
#374=CARTESIAN_POINT('',(0.,18.1919382984948,-118.647225876769));
#375=CARTESIAN_POINT('',(0.,-0.00647123896842694,-123.894690841));
#376=CARTESIAN_POINT('',(0.,-0.00557395489634851,-118.224346274356));
#377=CARTESIAN_POINT('',(0.,18.1920712213873,-118.227225897803));
#378=CARTESIAN_POINT('',(0.,-0.005640416342634,-118.644346263839));
#379=CARTESIAN_POINT('',(0.,-0.00469533320015044,-112.671937715902));
#380=CARTESIAN_POINT('',(0.,12.2406093335997,-112.673875431804));
#381=CARTESIAN_POINT('',(0.,-0.00557395489634851,-118.224346274356));
#382=CARTESIAN_POINT('',(0.,-9.22367713502415E-5,-83.5828859462342));
#383=CARTESIAN_POINT('',(0.,12.2498155264573,-83.5848243905371));
#384=CARTESIAN_POINT('',(0.,-0.00469533320015044,-112.671937715902));
#385=CARTESIAN_POINT('',(0.,-9.22568036583471E-5,-83.5830125394652));
#386=CARTESIAN_POINT('',(0.,0.0129754931747529,-1.00198007254448));
#387=CARTESIAN_POINT('',(0.,0.,-118.147157287525));
#388=CARTESIAN_POINT('',(-5.88118615557869,0.,-118.147157287525));
#389=CARTESIAN_POINT('',(0.,0.,-111.981186155579));
#390=CARTESIAN_POINT('',(-12.0471572875254,0.,-111.981186155579));
#391=CARTESIAN_POINT('',(0.,0.,-111.981186155579));
#392=CARTESIAN_POINT('',(0.,0.,-118.712842712475));
#393=CARTESIAN_POINT('',(-5.88118615557869,0.,-118.712842712475));
#394=CARTESIAN_POINT('',(0.,0.,-118.43));
#395=CARTESIAN_POINT('',(0.,0.,-124.878813844421));
#396=CARTESIAN_POINT('',(-12.0471572875254,0.,-124.878813844421));
#397=CARTESIAN_POINT('',(0.,0.,-118.712842712475));
#398=CARTESIAN_POINT('',(0.,0.,-124.878813844421));
#399=CARTESIAN_POINT('',(-12.6128427124746,0.,-124.878813844421));
#400=CARTESIAN_POINT('',(0.,0.,-124.595971131947));
#401=CARTESIAN_POINT('',(0.,0.,-118.712842712475));
#402=CARTESIAN_POINT('',(-18.7788138444213,0.,-118.712842712475));
#403=CARTESIAN_POINT('',(0.,0.,-124.878813844421));
#404=CARTESIAN_POINT('',(0.,0.,-118.147157287525));
#405=CARTESIAN_POINT('',(-18.7788138444213,0.,-118.147157287525));
#406=CARTESIAN_POINT('',(0.,0.,-118.43));
#407=CARTESIAN_POINT('',(0.,0.,-111.981186155579));
#408=CARTESIAN_POINT('',(-12.6128427124746,0.,-111.981186155579));
#409=CARTESIAN_POINT('',(0.,0.,-118.147157287525));
#410=CARTESIAN_POINT('',(0.,0.,-112.264028868053));
#411=MECHANICAL_DESIGN_GEOMETRIC_PRESENTATION_REPRESENTATION('',(#33,#34),
#412);
#412=(
GEOMETRIC_REPRESENTATION_CONTEXT(3)
GLOBAL_UNCERTAINTY_ASSIGNED_CONTEXT((#413))
GLOBAL_UNIT_ASSIGNED_CONTEXT((#419,#415,#414))
REPRESENTATION_CONTEXT('25N3R042B25-SSO09-C','TOP_LEVEL_ASSEMBLY_PART')
);
#413=UNCERTAINTY_MEASURE_WITH_UNIT(LENGTH_MEASURE(2.E-5),#419,
'DISTANCE_ACCURACY_VALUE','Maximum Tolerance applied to model');
#414=(
NAMED_UNIT(*)
SI_UNIT($,.STERADIAN.)
SOLID_ANGLE_UNIT()
);
#415=(
CONVERSION_BASED_UNIT('DEGREE',#417)
NAMED_UNIT(#416)
PLANE_ANGLE_UNIT()
);
#416=DIMENSIONAL_EXPONENTS(0.,0.,0.,0.,0.,0.,0.);
#417=PLANE_ANGLE_MEASURE_WITH_UNIT(PLANE_ANGLE_MEASURE(0.0174532925),#418);
#418=(
NAMED_UNIT(*)
PLANE_ANGLE_UNIT()
SI_UNIT($,.RADIAN.)
);
#419=(
LENGTH_UNIT()
NAMED_UNIT(*)
SI_UNIT(.MILLI.,.METRE.)
);
ENDSEC;
END-ISO-10303-21;
