ISO-10303-21;
HEADER;
/* Generated by software containing ST-Developer
 * from STEP Tools, Inc. (www.steptools.com) 
 */
/* OPTION: using custom schema-name function */

FILE_DESCRIPTION(
/* description */ (''),
/* implementation_level */ '2;1');

FILE_NAME(
/* name */ '25N3R042A25_SSD09_SIM.stp',
/* time_stamp */ '2019-12-16T08:24:46+01:00',
/* author */ (''),
/* organization */ (''),
/* preprocessor_version */ 'ST-DEVELOPER v16.7',
/* originating_system */ 'SIEMENS PLM Software NX 12.0',
/* authorisation */ '');

FILE_SCHEMA (('AUTOMOTIVE_DESIGN { 1 0 10303 214 3 1 1 1 }'));
ENDSEC;

DATA;
#10=PROPERTY_DEFINITION_REPRESENTATION(#14,#12);
#11=PROPERTY_DEFINITION_REPRESENTATION(#15,#13);
#12=REPRESENTATION('',(#16),#394);
#13=REPRESENTATION('',(#17),#394);
#14=PROPERTY_DEFINITION('pmi validation property','',#21);
#15=PROPERTY_DEFINITION('pmi validation property','',#21);
#16=VALUE_REPRESENTATION_ITEM('number of annotations',COUNT_MEASURE(0.));
#17=VALUE_REPRESENTATION_ITEM('number of views',COUNT_MEASURE(0.));
#18=SHAPE_REPRESENTATION_RELATIONSHIP('None',
'relationship between pp073CE8171Alegk-None and pp073CE8171Alegk-None',
#30,#19);
#19=ADVANCED_BREP_SHAPE_REPRESENTATION('pp073CE8171Alegk-None',(#63,#64),
#394);
#20=SHAPE_DEFINITION_REPRESENTATION(#21,#30);
#21=PRODUCT_DEFINITION_SHAPE('','',#22);
#22=PRODUCT_DEFINITION(' ','',#24,#23);
#23=PRODUCT_DEFINITION_CONTEXT('part definition',#29,'design');
#24=PRODUCT_DEFINITION_FORMATION_WITH_SPECIFIED_SOURCE(' ',' ',#26,
 .NOT_KNOWN.);
#25=PRODUCT_RELATED_PRODUCT_CATEGORY('part','',(#26));
#26=PRODUCT('pp073CE8171Alegk','pp073CE8171Alegk',' ',(#27));
#27=PRODUCT_CONTEXT(' ',#29,'mechanical');
#28=APPLICATION_PROTOCOL_DEFINITION('international standard',
'automotive_design',2010,#29);
#29=APPLICATION_CONTEXT(
'core data for automotive mechanical design processes');
#30=SHAPE_REPRESENTATION('pp073CE8171Alegk-None',(#240),#394);
#31=VERTEX_LOOP('',#207);
#32=SURFACE_OF_REVOLUTION('',#36,#34);
#33=SURFACE_OF_REVOLUTION('',#37,#35);
#34=AXIS1_PLACEMENT('',#383,#327);
#35=AXIS1_PLACEMENT('',#387,#331);
#36=LINE('',#382,#38);
#37=LINE('',#386,#39);
#38=VECTOR('',#326,11.7116934207749);
#39=VECTOR('',#330,8.37020219898852);
#40=CYLINDRICAL_SURFACE('',#261,12.5);
#41=CYLINDRICAL_SURFACE('',#264,12.);
#42=CYLINDRICAL_SURFACE('',#270,17.4259236776701);
#43=PLANE('',#258);
#44=FACE_OUTER_BOUND('',#143,.T.);
#45=PRESENTATION_LAYER_ASSIGNMENT('96','Layer 96',(#63));
#46=PRESENTATION_LAYER_ASSIGNMENT('14','Layer 14',(#64));
#47=STYLED_ITEM('',(#49),#63);
#48=STYLED_ITEM('',(#50),#64);
#49=PRESENTATION_STYLE_ASSIGNMENT((#51));
#50=PRESENTATION_STYLE_ASSIGNMENT((#52));
#51=SURFACE_STYLE_USAGE(.BOTH.,#53);
#52=SURFACE_STYLE_USAGE(.BOTH.,#54);
#53=SURFACE_SIDE_STYLE('',(#55));
#54=SURFACE_SIDE_STYLE('',(#56));
#55=SURFACE_STYLE_FILL_AREA(#57);
#56=SURFACE_STYLE_FILL_AREA(#58);
#57=FILL_AREA_STYLE('',(#59));
#58=FILL_AREA_STYLE('',(#60));
#59=FILL_AREA_STYLE_COLOUR('',#61);
#60=FILL_AREA_STYLE_COLOUR('',#62);
#61=COLOUR_RGB('Light Gray',0.8,0.8,0.8);
#62=COLOUR_RGB('Silver Gray',0.6,0.6,0.6);
#63=MANIFOLD_SOLID_BREP('',#65);
#64=MANIFOLD_SOLID_BREP('',#66);
#65=CLOSED_SHELL('',(#73,#74,#75,#76,#77,#78,#79,#80));
#66=CLOSED_SHELL('',(#81,#82,#83,#84,#85,#86,#87,#88,#89));
#67=CONICAL_SURFACE('',#245,11.6029437251538,45.0000000000001);
#68=CONICAL_SURFACE('',#249,5.99912248425016,44.9999999999991);
#69=CONICAL_SURFACE('',#253,12.7343145750522,44.9999999999897);
#70=CONICAL_SURFACE('',#256,18.3381358159554,45.0000000000001);
#71=CONICAL_SURFACE('',#268,7.79410760378478E-18,85.);
#72=CONICAL_SURFACE('',#271,11.5,45.);
#73=ADVANCED_FACE('',(#95,#96),#90,.T.);
#74=ADVANCED_FACE('',(#97,#98),#67,.F.);
#75=ADVANCED_FACE('',(#99,#100),#91,.T.);
#76=ADVANCED_FACE('',(#101,#102),#68,.F.);
#77=ADVANCED_FACE('',(#103,#104),#92,.T.);
#78=ADVANCED_FACE('',(#105,#106),#69,.T.);
#79=ADVANCED_FACE('',(#107,#108),#93,.T.);
#80=ADVANCED_FACE('',(#109,#110),#70,.T.);
#81=ADVANCED_FACE('',(#44),#43,.F.);
#82=ADVANCED_FACE('',(#111,#112),#40,.T.);
#83=ADVANCED_FACE('',(#113,#114),#41,.T.);
#84=ADVANCED_FACE('',(#115,#116),#32,.T.);
#85=ADVANCED_FACE('',(#117,#118),#33,.T.);
#86=ADVANCED_FACE('',(#119,#120),#71,.F.);
#87=ADVANCED_FACE('',(#121,#122),#94,.F.);
#88=ADVANCED_FACE('',(#123,#124),#42,.T.);
#89=ADVANCED_FACE('',(#125,#126),#72,.T.);
#90=TOROIDAL_SURFACE('',#243,12.1686291501034,0.800000000000001);
#91=TOROIDAL_SURFACE('',#247,6.56480790920003,0.800000000000001);
#92=TOROIDAL_SURFACE('',#251,12.1686291501033,0.800000000000001);
#93=TOROIDAL_SURFACE('',#255,17.7724503910069,0.800000000000001);
#94=TOROIDAL_SURFACE('',#269,12.8,0.8);
#95=FACE_BOUND('',#127,.T.);
#96=FACE_BOUND('',#128,.T.);
#97=FACE_BOUND('',#129,.T.);
#98=FACE_BOUND('',#130,.T.);
#99=FACE_BOUND('',#131,.T.);
#100=FACE_BOUND('',#132,.T.);
#101=FACE_BOUND('',#133,.T.);
#102=FACE_BOUND('',#134,.T.);
#103=FACE_BOUND('',#135,.T.);
#104=FACE_BOUND('',#136,.T.);
#105=FACE_BOUND('',#137,.T.);
#106=FACE_BOUND('',#138,.T.);
#107=FACE_BOUND('',#139,.T.);
#108=FACE_BOUND('',#140,.T.);
#109=FACE_BOUND('',#141,.T.);
#110=FACE_BOUND('',#142,.T.);
#111=FACE_BOUND('',#144,.T.);
#112=FACE_BOUND('',#145,.T.);
#113=FACE_BOUND('',#146,.T.);
#114=FACE_BOUND('',#147,.T.);
#115=FACE_BOUND('',#148,.T.);
#116=FACE_BOUND('',#149,.T.);
#117=FACE_BOUND('',#150,.T.);
#118=FACE_BOUND('',#151,.T.);
#119=FACE_BOUND('',#152,.T.);
#120=FACE_BOUND('',#31,.T.);
#121=FACE_BOUND('',#153,.T.);
#122=FACE_BOUND('',#154,.T.);
#123=FACE_BOUND('',#155,.T.);
#124=FACE_BOUND('',#156,.T.);
#125=FACE_BOUND('',#157,.T.);
#126=FACE_BOUND('',#158,.T.);
#127=EDGE_LOOP('',(#159));
#128=EDGE_LOOP('',(#160));
#129=EDGE_LOOP('',(#161));
#130=EDGE_LOOP('',(#162));
#131=EDGE_LOOP('',(#163));
#132=EDGE_LOOP('',(#164));
#133=EDGE_LOOP('',(#165));
#134=EDGE_LOOP('',(#166));
#135=EDGE_LOOP('',(#167));
#136=EDGE_LOOP('',(#168));
#137=EDGE_LOOP('',(#169));
#138=EDGE_LOOP('',(#170));
#139=EDGE_LOOP('',(#171));
#140=EDGE_LOOP('',(#172));
#141=EDGE_LOOP('',(#173));
#142=EDGE_LOOP('',(#174));
#143=EDGE_LOOP('',(#175));
#144=EDGE_LOOP('',(#176));
#145=EDGE_LOOP('',(#177));
#146=EDGE_LOOP('',(#178));
#147=EDGE_LOOP('',(#179));
#148=EDGE_LOOP('',(#180));
#149=EDGE_LOOP('',(#181));
#150=EDGE_LOOP('',(#182));
#151=EDGE_LOOP('',(#183));
#152=EDGE_LOOP('',(#184));
#153=EDGE_LOOP('',(#185));
#154=EDGE_LOOP('',(#186));
#155=EDGE_LOOP('',(#187));
#156=EDGE_LOOP('',(#188));
#157=EDGE_LOOP('',(#189));
#158=EDGE_LOOP('',(#190));
#159=ORIENTED_EDGE('',*,*,#208,.F.);
#160=ORIENTED_EDGE('',*,*,#209,.T.);
#161=ORIENTED_EDGE('',*,*,#210,.F.);
#162=ORIENTED_EDGE('',*,*,#208,.T.);
#163=ORIENTED_EDGE('',*,*,#211,.T.);
#164=ORIENTED_EDGE('',*,*,#210,.T.);
#165=ORIENTED_EDGE('',*,*,#212,.F.);
#166=ORIENTED_EDGE('',*,*,#211,.F.);
#167=ORIENTED_EDGE('',*,*,#213,.F.);
#168=ORIENTED_EDGE('',*,*,#212,.T.);
#169=ORIENTED_EDGE('',*,*,#214,.F.);
#170=ORIENTED_EDGE('',*,*,#213,.T.);
#171=ORIENTED_EDGE('',*,*,#215,.T.);
#172=ORIENTED_EDGE('',*,*,#214,.T.);
#173=ORIENTED_EDGE('',*,*,#209,.F.);
#174=ORIENTED_EDGE('',*,*,#215,.F.);
#175=ORIENTED_EDGE('',*,*,#216,.T.);
#176=ORIENTED_EDGE('',*,*,#217,.T.);
#177=ORIENTED_EDGE('',*,*,#218,.T.);
#178=ORIENTED_EDGE('',*,*,#219,.T.);
#179=ORIENTED_EDGE('',*,*,#220,.T.);
#180=ORIENTED_EDGE('',*,*,#221,.T.);
#181=ORIENTED_EDGE('',*,*,#222,.T.);
#182=ORIENTED_EDGE('',*,*,#223,.T.);
#183=ORIENTED_EDGE('',*,*,#220,.F.);
#184=ORIENTED_EDGE('',*,*,#222,.F.);
#185=ORIENTED_EDGE('',*,*,#219,.F.);
#186=ORIENTED_EDGE('',*,*,#218,.F.);
#187=ORIENTED_EDGE('',*,*,#221,.F.);
#188=ORIENTED_EDGE('',*,*,#223,.F.);
#189=ORIENTED_EDGE('',*,*,#217,.F.);
#190=ORIENTED_EDGE('',*,*,#216,.F.);
#191=VERTEX_POINT('',#342);
#192=VERTEX_POINT('',#344);
#193=VERTEX_POINT('',#347);
#194=VERTEX_POINT('',#350);
#195=VERTEX_POINT('',#353);
#196=VERTEX_POINT('',#356);
#197=VERTEX_POINT('',#359);
#198=VERTEX_POINT('',#362);
#199=VERTEX_POINT('',#366);
#200=VERTEX_POINT('',#369);
#201=VERTEX_POINT('',#371);
#202=VERTEX_POINT('',#374);
#203=VERTEX_POINT('',#376);
#204=VERTEX_POINT('',#379);
#205=VERTEX_POINT('',#381);
#206=VERTEX_POINT('',#385);
#207=VERTEX_POINT('',#388);
#208=EDGE_CURVE('',#191,#191,#224,.T.);
#209=EDGE_CURVE('',#192,#192,#225,.T.);
#210=EDGE_CURVE('',#193,#193,#226,.T.);
#211=EDGE_CURVE('',#194,#194,#227,.T.);
#212=EDGE_CURVE('',#195,#195,#228,.T.);
#213=EDGE_CURVE('',#196,#196,#229,.T.);
#214=EDGE_CURVE('',#197,#197,#230,.T.);
#215=EDGE_CURVE('',#198,#198,#231,.T.);
#216=EDGE_CURVE('',#199,#199,#232,.T.);
#217=EDGE_CURVE('',#200,#200,#233,.T.);
#218=EDGE_CURVE('',#201,#201,#234,.T.);
#219=EDGE_CURVE('',#202,#202,#235,.T.);
#220=EDGE_CURVE('',#203,#203,#236,.T.);
#221=EDGE_CURVE('',#204,#204,#237,.T.);
#222=EDGE_CURVE('',#205,#205,#238,.T.);
#223=EDGE_CURVE('',#206,#206,#239,.T.);
#224=CIRCLE('',#241,11.6029437251538);
#225=CIRCLE('',#242,12.7343145750526);
#226=CIRCLE('',#244,5.9991224842508);
#227=CIRCLE('',#246,5.99912248425016);
#228=CIRCLE('',#248,11.602943725154);
#229=CIRCLE('',#250,12.7343145750522);
#230=CIRCLE('',#252,18.3381358159546);
#231=CIRCLE('',#254,18.3381358159554);
#232=CIRCLE('',#257,11.5);
#233=CIRCLE('',#259,12.5);
#234=CIRCLE('',#260,12.5);
#235=CIRCLE('',#262,12.);
#236=CIRCLE('',#263,12.);
#237=CIRCLE('',#265,17.4259236776701);
#238=CIRCLE('',#266,12.5202172992783);
#239=CIRCLE('',#267,17.4259236776701);
#240=AXIS2_PLACEMENT_3D('',#340,#272,#273);
#241=AXIS2_PLACEMENT_3D('',#341,#274,#275);
#242=AXIS2_PLACEMENT_3D('',#343,#276,#277);
#243=AXIS2_PLACEMENT_3D('',#345,#278,#279);
#244=AXIS2_PLACEMENT_3D('',#346,#280,#281);
#245=AXIS2_PLACEMENT_3D('',#348,#282,#283);
#246=AXIS2_PLACEMENT_3D('',#349,#284,#285);
#247=AXIS2_PLACEMENT_3D('',#351,#286,#287);
#248=AXIS2_PLACEMENT_3D('',#352,#288,#289);
#249=AXIS2_PLACEMENT_3D('',#354,#290,#291);
#250=AXIS2_PLACEMENT_3D('',#355,#292,#293);
#251=AXIS2_PLACEMENT_3D('',#357,#294,#295);
#252=AXIS2_PLACEMENT_3D('',#358,#296,#297);
#253=AXIS2_PLACEMENT_3D('',#360,#298,#299);
#254=AXIS2_PLACEMENT_3D('',#361,#300,#301);
#255=AXIS2_PLACEMENT_3D('',#363,#302,#303);
#256=AXIS2_PLACEMENT_3D('',#364,#304,#305);
#257=AXIS2_PLACEMENT_3D('',#365,#306,#307);
#258=AXIS2_PLACEMENT_3D('',#367,#308,#309);
#259=AXIS2_PLACEMENT_3D('',#368,#310,#311);
#260=AXIS2_PLACEMENT_3D('',#370,#312,#313);
#261=AXIS2_PLACEMENT_3D('',#372,#314,#315);
#262=AXIS2_PLACEMENT_3D('',#373,#316,#317);
#263=AXIS2_PLACEMENT_3D('',#375,#318,#319);
#264=AXIS2_PLACEMENT_3D('',#377,#320,#321);
#265=AXIS2_PLACEMENT_3D('',#378,#322,#323);
#266=AXIS2_PLACEMENT_3D('',#380,#324,#325);
#267=AXIS2_PLACEMENT_3D('',#384,#328,#329);
#268=AXIS2_PLACEMENT_3D('',#389,#332,#333);
#269=AXIS2_PLACEMENT_3D('',#390,#334,#335);
#270=AXIS2_PLACEMENT_3D('',#391,#336,#337);
#271=AXIS2_PLACEMENT_3D('',#392,#338,#339);
#272=DIRECTION('',(0.,0.,1.));
#273=DIRECTION('',(1.,0.,0.));
#274=DIRECTION('',(0.,0.,-1.));
#275=DIRECTION('',(-1.,0.,0.));
#276=DIRECTION('',(0.,0.,-1.));
#277=DIRECTION('',(-1.,0.,0.));
#278=DIRECTION('',(0.,0.,-1.));
#279=DIRECTION('',(-1.,0.,0.));
#280=DIRECTION('',(0.,0.,-1.));
#281=DIRECTION('',(-1.,0.,0.));
#282=DIRECTION('',(0.,0.,-1.));
#283=DIRECTION('',(-1.,0.,5.48744461209671E-17));
#284=DIRECTION('',(0.,0.,1.));
#285=DIRECTION('',(-1.,0.,0.));
#286=DIRECTION('',(0.,0.,-1.));
#287=DIRECTION('',(-1.,0.,0.));
#288=DIRECTION('',(0.,0.,-1.));
#289=DIRECTION('',(-1.,0.,0.));
#290=DIRECTION('',(0.,0.,1.));
#291=DIRECTION('',(1.,0.,0.));
#292=DIRECTION('',(0.,0.,-1.));
#293=DIRECTION('',(-1.,0.,0.));
#294=DIRECTION('',(0.,0.,-1.));
#295=DIRECTION('',(-1.,0.,0.));
#296=DIRECTION('',(0.,0.,-1.));
#297=DIRECTION('',(-1.,0.,0.));
#298=DIRECTION('',(0.,0.,-1.));
#299=DIRECTION('',(-1.,0.,2.74065717100591E-17));
#300=DIRECTION('',(0.,0.,1.));
#301=DIRECTION('',(-1.,0.,0.));
#302=DIRECTION('',(0.,0.,-1.));
#303=DIRECTION('',(-1.,0.,0.));
#304=DIRECTION('',(0.,0.,1.));
#305=DIRECTION('',(1.,0.,0.));
#306=DIRECTION('',(0.,0.,1.));
#307=DIRECTION('',(1.11022302462516E-16,-1.,0.));
#308=DIRECTION('',(0.,0.,-1.));
#309=DIRECTION('',(1.11022302462516E-16,-1.,0.));
#310=DIRECTION('',(0.,0.,-1.));
#311=DIRECTION('',(1.11022302462516E-16,-1.,0.));
#312=DIRECTION('',(0.,0.,1.));
#313=DIRECTION('',(-1.11022302462516E-16,1.,0.));
#314=DIRECTION('',(0.,0.,1.));
#315=DIRECTION('',(-1.11022302462516E-16,1.,0.));
#316=DIRECTION('',(0.,0.,-1.));
#317=DIRECTION('',(-1.11022302462516E-16,1.,0.));
#318=DIRECTION('',(0.,0.,1.));
#319=DIRECTION('',(-1.11022302462516E-16,1.,0.));
#320=DIRECTION('',(0.,0.,1.));
#321=DIRECTION('',(-1.11022302462516E-16,1.,0.));
#322=DIRECTION('',(0.,0.,-1.));
#323=DIRECTION('',(-1.11022302462516E-16,1.,0.));
#324=DIRECTION('',(0.,0.,1.));
#325=DIRECTION('',(-1.11022302462516E-16,1.,0.));
#326=DIRECTION('',(0.707106781186548,7.85046229341891E-17,0.707106781186547));
#327=DIRECTION('',(0.,0.,1.));
#328=DIRECTION('',(0.,0.,1.));
#329=DIRECTION('',(-1.11022302462516E-16,1.,0.));
#330=DIRECTION('',(-0.707106781186547,-7.8504622934189E-17,0.707106781186548));
#331=DIRECTION('',(0.,0.,1.));
#332=DIRECTION('',(0.,0.,-1.));
#333=DIRECTION('',(1.11022302462516E-16,-1.,-2.42829821600409E-18));
#334=DIRECTION('',(0.,0.,1.));
#335=DIRECTION('',(-1.11022302462516E-16,1.,0.));
#336=DIRECTION('',(0.,0.,1.));
#337=DIRECTION('',(-1.11022302462516E-16,1.,0.));
#338=DIRECTION('',(0.,0.,-1.));
#339=DIRECTION('',(1.11022302462516E-16,-1.,-2.74400154380909E-17));
#340=CARTESIAN_POINT('',(0.,0.,0.));
#341=CARTESIAN_POINT('',(0.,0.,-143.765685424949));
#342=CARTESIAN_POINT('',(-11.6029437251538,0.,-143.765685424949));
#343=CARTESIAN_POINT('',(0.,0.,-143.765685424949));
#344=CARTESIAN_POINT('',(-12.7343145750526,0.,-143.765685424949));
#345=CARTESIAN_POINT('',(0.,0.,-143.2));
#346=CARTESIAN_POINT('',(0.,0.,-138.161864184046));
#347=CARTESIAN_POINT('',(-5.9991224842508,0.,-138.161864184046));
#348=CARTESIAN_POINT('',(0.,0.,-143.765685424949));
#349=CARTESIAN_POINT('',(0.,0.,-137.030493334148));
#350=CARTESIAN_POINT('',(-5.99912248425016,0.,-137.030493334148));
#351=CARTESIAN_POINT('',(0.,0.,-137.596178759097));
#352=CARTESIAN_POINT('',(0.,0.,-131.426672093244));
#353=CARTESIAN_POINT('',(-11.602943725154,0.,-131.426672093244));
#354=CARTESIAN_POINT('',(0.,0.,-137.030493334148));
#355=CARTESIAN_POINT('',(0.,0.,-131.426672093244));
#356=CARTESIAN_POINT('',(-12.7343145750522,0.,-131.426672093244));
#357=CARTESIAN_POINT('',(0.,0.,-131.992357518193));
#358=CARTESIAN_POINT('',(0.,0.,-137.030493334148));
#359=CARTESIAN_POINT('',(-18.3381358159546,0.,-137.030493334148));
#360=CARTESIAN_POINT('',(0.,0.,-131.426672093244));
#361=CARTESIAN_POINT('',(0.,0.,-138.161864184046));
#362=CARTESIAN_POINT('',(-18.3381358159554,0.,-138.161864184046));
#363=CARTESIAN_POINT('',(0.,0.,-137.596178759096));
#364=CARTESIAN_POINT('',(0.,0.,-138.161864184046));
#365=CARTESIAN_POINT('',(0.,0.,56.));
#366=CARTESIAN_POINT('',(1.27675647831893E-15,-11.5,56.));
#367=CARTESIAN_POINT('',(12.5,1.38777878078145E-15,56.));
#368=CARTESIAN_POINT('',(0.,0.,55.));
#369=CARTESIAN_POINT('',(1.38777878078145E-15,-12.5,55.));
#370=CARTESIAN_POINT('',(0.,0.,-102.));
#371=CARTESIAN_POINT('',(-1.38777878078145E-15,12.5,-102.));
#372=CARTESIAN_POINT('',(0.,0.,-144.));
#373=CARTESIAN_POINT('',(0.,0.,-102.74161984871));
#374=CARTESIAN_POINT('',(-1.33226762955019E-15,12.,-102.74161984871));
#375=CARTESIAN_POINT('',(0.,0.,-131.677552024289));
#376=CARTESIAN_POINT('',(-1.33226762955019E-15,12.,-131.677552024289));
#377=CARTESIAN_POINT('',(0.,0.,-144.));
#378=CARTESIAN_POINT('',(0.,0.,-137.952473389066));
#379=CARTESIAN_POINT('',(-1.93466616923101E-15,17.4259236776701,-137.952473389066));
#380=CARTESIAN_POINT('',(0.,0.,-142.976143948224));
#381=CARTESIAN_POINT('',(-1.3900233518969E-15,12.5202172992783,-142.976143948224));
#382=CARTESIAN_POINT('',(8.85189521155298,3.18,-146.233891226074));
#383=CARTESIAN_POINT('',(0.,0.,-144.));
#384=CARTESIAN_POINT('',(0.,0.,-137.239884129127));
#385=CARTESIAN_POINT('',(-1.93466616923101E-15,17.4259236776701,-137.239884129127));
#386=CARTESIAN_POINT('',(17.4896076785303,3.18,-137.596178759097));
#387=CARTESIAN_POINT('',(0.,0.,-144.));
#388=CARTESIAN_POINT('',(-7.79410760378478E-18,-8.6531977181279E-34,-141.880766869656));
#389=CARTESIAN_POINT('',(0.,0.,-141.880766869656));
#390=CARTESIAN_POINT('',(0.,0.,-102.74161984871));
#391=CARTESIAN_POINT('',(0.,0.,-137.239884129127));
#392=CARTESIAN_POINT('',(0.,0.,56.));
#393=MECHANICAL_DESIGN_GEOMETRIC_PRESENTATION_REPRESENTATION('',(#47,#48),
#394);
#394=(
GEOMETRIC_REPRESENTATION_CONTEXT(3)
GLOBAL_UNCERTAINTY_ASSIGNED_CONTEXT((#395))
GLOBAL_UNIT_ASSIGNED_CONTEXT((#401,#397,#396))
REPRESENTATION_CONTEXT('25N3R042A25_SSD09_SIM',
'TOP_LEVEL_ASSEMBLY_PART')
);
#395=UNCERTAINTY_MEASURE_WITH_UNIT(LENGTH_MEASURE(2.E-5),#401,
'DISTANCE_ACCURACY_VALUE','Maximum Tolerance applied to model');
#396=(
NAMED_UNIT(*)
SI_UNIT($,.STERADIAN.)
SOLID_ANGLE_UNIT()
);
#397=(
CONVERSION_BASED_UNIT('DEGREE',#399)
NAMED_UNIT(#398)
PLANE_ANGLE_UNIT()
);
#398=DIMENSIONAL_EXPONENTS(0.,0.,0.,0.,0.,0.,0.);
#399=PLANE_ANGLE_MEASURE_WITH_UNIT(PLANE_ANGLE_MEASURE(0.0174532925),#400);
#400=(
NAMED_UNIT(*)
PLANE_ANGLE_UNIT()
SI_UNIT($,.RADIAN.)
);
#401=(
LENGTH_UNIT()
NAMED_UNIT(*)
SI_UNIT(.MILLI.,.METRE.)
);
ENDSEC;
END-ISO-10303-21;
