ISO-10303-21;
HEADER;
/* Generated by software containing ST-Developer
 * from STEP Tools, Inc. (www.steptools.com) 
 */
/* OPTION: using custom schema-name function */

FILE_DESCRIPTION(
/* description */ (''),
/* implementation_level */ '2;1');

FILE_NAME(
/* name */ '25E2R034A20_SRC10_C_SIM.stp',
/* time_stamp */ '2017-05-26T13:17:46+02:00',
/* author */ (''),
/* organization */ (''),
/* preprocessor_version */ 'ST-DEVELOPER v15',
/* originating_system */ 'SIEMENS PLM Software NX 8.5',
/* authorisation */ '');

FILE_SCHEMA (('AUTOMOTIVE_DESIGN { 1 0 10303 214 3 1 1 1 }'));
ENDSEC;

DATA;
#10=PROPERTY_DEFINITION_REPRESENTATION(#14,#12);
#11=PROPERTY_DEFINITION_REPRESENTATION(#15,#13);
#12=REPRESENTATION('',(#16),#382);
#13=REPRESENTATION('',(#17),#382);
#14=PROPERTY_DEFINITION('pmi validation property','',#21);
#15=PROPERTY_DEFINITION('pmi validation property','',#21);
#16=VALUE_REPRESENTATION_ITEM('number of annotations',COUNT_MEASURE(0.));
#17=VALUE_REPRESENTATION_ITEM('number of views',COUNT_MEASURE(0.));
#18=SHAPE_REPRESENTATION_RELATIONSHIP('None',
'relationship between hm151C68BEDFjk9p-None and hm151C68BEDFjk9p-None',
#30,#19);
#19=ADVANCED_BREP_SHAPE_REPRESENTATION('hm151C68BEDFjk9p-None',(#51,#52),
#382);
#20=SHAPE_DEFINITION_REPRESENTATION(#21,#30);
#21=PRODUCT_DEFINITION_SHAPE('','',#22);
#22=PRODUCT_DEFINITION(' ','',#24,#23);
#23=PRODUCT_DEFINITION_CONTEXT('part definition',#29,'design');
#24=PRODUCT_DEFINITION_FORMATION_WITH_SPECIFIED_SOURCE(' ',' ',#26,
 .NOT_KNOWN.);
#25=PRODUCT_RELATED_PRODUCT_CATEGORY('part','',(#26));
#26=PRODUCT('hm151C68BEDFjk9p','hm151C68BEDFjk9p',' ',(#27));
#27=PRODUCT_CONTEXT(' ',#29,'mechanical');
#28=APPLICATION_PROTOCOL_DEFINITION('international standard',
'automotive_design',2010,#29);
#29=APPLICATION_CONTEXT(
'core data for automotive mechanical design processes');
#30=SHAPE_REPRESENTATION('hm151C68BEDFjk9p-None',(#230),#382);
#31=SURFACE_OF_REVOLUTION('',#229,#32);
#32=AXIS1_PLACEMENT('',#380,#329);
#33=PRESENTATION_LAYER_ASSIGNMENT('14','Layer 14',(#51));
#34=PRESENTATION_LAYER_ASSIGNMENT('60','Layer 60',(#52));
#35=STYLED_ITEM('',(#37),#51);
#36=STYLED_ITEM('',(#38),#52);
#37=PRESENTATION_STYLE_ASSIGNMENT((#39));
#38=PRESENTATION_STYLE_ASSIGNMENT((#40));
#39=SURFACE_STYLE_USAGE(.BOTH.,#41);
#40=SURFACE_STYLE_USAGE(.BOTH.,#42);
#41=SURFACE_SIDE_STYLE('',(#43));
#42=SURFACE_SIDE_STYLE('',(#44));
#43=SURFACE_STYLE_FILL_AREA(#45);
#44=SURFACE_STYLE_FILL_AREA(#46);
#45=FILL_AREA_STYLE('',(#47));
#46=FILL_AREA_STYLE('',(#48));
#47=FILL_AREA_STYLE_COLOUR('',#49);
#48=FILL_AREA_STYLE_COLOUR('',#50);
#49=COLOUR_RGB('Silver Gray',0.6,0.6,0.6);
#50=COLOUR_RGB('Light Gray',0.8,0.8,0.8);
#51=MANIFOLD_SOLID_BREP('',#53);
#52=MANIFOLD_SOLID_BREP('',#54);
#53=CLOSED_SHELL('',(#69,#70,#71,#72,#73,#74,#75,#76,#77,#78,#79,#80,#81,
#82,#83,#84));
#54=CLOSED_SHELL('',(#85));
#55=VERTEX_LOOP('',#196);
#56=VERTEX_LOOP('',#198);
#57=PLANE('',#242);
#58=PLANE('',#251);
#59=FACE_OUTER_BOUND('',#130,.T.);
#60=TOROIDAL_SURFACE('',#238,8.23686488834388,3.4875937406236);
#61=TOROIDAL_SURFACE('',#246,1.99446539527367,1.6);
#62=TOROIDAL_SURFACE('',#247,9.72445862896749,2.);
#63=TOROIDAL_SURFACE('',#248,11.5,2.);
#64=TOROIDAL_SURFACE('',#255,10.5,1.);
#65=CYLINDRICAL_SURFACE('',#236,11.7244586289675);
#66=CYLINDRICAL_SURFACE('',#245,9.5);
#67=CYLINDRICAL_SURFACE('',#254,9.99999999999999);
#68=CYLINDRICAL_SURFACE('',#260,3.);
#69=ADVANCED_FACE('',(#91,#92),#86,.T.);
#70=ADVANCED_FACE('',(#93,#94),#65,.T.);
#71=ADVANCED_FACE('',(#95,#96),#60,.T.);
#72=ADVANCED_FACE('',(#97,#98),#87,.F.);
#73=ADVANCED_FACE('',(#59),#57,.T.);
#74=ADVANCED_FACE('',(#99,#100),#66,.T.);
#75=ADVANCED_FACE('',(#101,#102),#61,.F.);
#76=ADVANCED_FACE('',(#103,#104),#62,.T.);
#77=ADVANCED_FACE('',(#105,#106),#63,.F.);
#78=ADVANCED_FACE('',(#107,#108),#58,.T.);
#79=ADVANCED_FACE('',(#109,#110),#67,.T.);
#80=ADVANCED_FACE('',(#111,#112),#64,.F.);
#81=ADVANCED_FACE('',(#113,#114),#88,.T.);
#82=ADVANCED_FACE('',(#115,#116),#89,.F.);
#83=ADVANCED_FACE('',(#117,#118),#68,.F.);
#84=ADVANCED_FACE('',(#119,#120),#90,.F.);
#85=ADVANCED_FACE('',(#121),#31,.F.);
#86=CONICAL_SURFACE('',#233,9.5,20.);
#87=CONICAL_SURFACE('',#240,6.23303355790009,54.931186073662);
#88=CONICAL_SURFACE('',#256,9.49999999999999,45.);
#89=CONICAL_SURFACE('',#258,3.,60.);
#90=CONICAL_SURFACE('',#261,3.57735,30.);
#91=FACE_BOUND('',#122,.T.);
#92=FACE_BOUND('',#123,.T.);
#93=FACE_BOUND('',#124,.T.);
#94=FACE_BOUND('',#125,.T.);
#95=FACE_BOUND('',#126,.T.);
#96=FACE_BOUND('',#127,.T.);
#97=FACE_BOUND('',#128,.T.);
#98=FACE_BOUND('',#129,.T.);
#99=FACE_BOUND('',#131,.T.);
#100=FACE_BOUND('',#132,.T.);
#101=FACE_BOUND('',#133,.T.);
#102=FACE_BOUND('',#134,.T.);
#103=FACE_BOUND('',#135,.T.);
#104=FACE_BOUND('',#136,.T.);
#105=FACE_BOUND('',#137,.T.);
#106=FACE_BOUND('',#138,.T.);
#107=FACE_BOUND('',#139,.T.);
#108=FACE_BOUND('',#140,.T.);
#109=FACE_BOUND('',#141,.T.);
#110=FACE_BOUND('',#142,.T.);
#111=FACE_BOUND('',#143,.T.);
#112=FACE_BOUND('',#144,.T.);
#113=FACE_BOUND('',#145,.T.);
#114=FACE_BOUND('',#146,.T.);
#115=FACE_BOUND('',#147,.T.);
#116=FACE_BOUND('',#55,.T.);
#117=FACE_BOUND('',#148,.T.);
#118=FACE_BOUND('',#149,.T.);
#119=FACE_BOUND('',#150,.T.);
#120=FACE_BOUND('',#151,.T.);
#121=FACE_BOUND('',#56,.T.);
#122=EDGE_LOOP('',(#152));
#123=EDGE_LOOP('',(#153));
#124=EDGE_LOOP('',(#154));
#125=EDGE_LOOP('',(#155));
#126=EDGE_LOOP('',(#156));
#127=EDGE_LOOP('',(#157));
#128=EDGE_LOOP('',(#158));
#129=EDGE_LOOP('',(#159));
#130=EDGE_LOOP('',(#160));
#131=EDGE_LOOP('',(#161));
#132=EDGE_LOOP('',(#162));
#133=EDGE_LOOP('',(#163));
#134=EDGE_LOOP('',(#164));
#135=EDGE_LOOP('',(#165));
#136=EDGE_LOOP('',(#166));
#137=EDGE_LOOP('',(#167));
#138=EDGE_LOOP('',(#168));
#139=EDGE_LOOP('',(#169));
#140=EDGE_LOOP('',(#170));
#141=EDGE_LOOP('',(#171));
#142=EDGE_LOOP('',(#172));
#143=EDGE_LOOP('',(#173));
#144=EDGE_LOOP('',(#174));
#145=EDGE_LOOP('',(#175));
#146=EDGE_LOOP('',(#176));
#147=EDGE_LOOP('',(#177));
#148=EDGE_LOOP('',(#178));
#149=EDGE_LOOP('',(#179));
#150=EDGE_LOOP('',(#180));
#151=EDGE_LOOP('',(#181));
#152=ORIENTED_EDGE('',*,*,#199,.T.);
#153=ORIENTED_EDGE('',*,*,#200,.T.);
#154=ORIENTED_EDGE('',*,*,#201,.T.);
#155=ORIENTED_EDGE('',*,*,#202,.T.);
#156=ORIENTED_EDGE('',*,*,#203,.T.);
#157=ORIENTED_EDGE('',*,*,#202,.F.);
#158=ORIENTED_EDGE('',*,*,#204,.T.);
#159=ORIENTED_EDGE('',*,*,#203,.F.);
#160=ORIENTED_EDGE('',*,*,#205,.T.);
#161=ORIENTED_EDGE('',*,*,#206,.T.);
#162=ORIENTED_EDGE('',*,*,#207,.T.);
#163=ORIENTED_EDGE('',*,*,#205,.F.);
#164=ORIENTED_EDGE('',*,*,#204,.F.);
#165=ORIENTED_EDGE('',*,*,#201,.F.);
#166=ORIENTED_EDGE('',*,*,#199,.F.);
#167=ORIENTED_EDGE('',*,*,#200,.F.);
#168=ORIENTED_EDGE('',*,*,#207,.F.);
#169=ORIENTED_EDGE('',*,*,#208,.T.);
#170=ORIENTED_EDGE('',*,*,#209,.T.);
#171=ORIENTED_EDGE('',*,*,#210,.T.);
#172=ORIENTED_EDGE('',*,*,#211,.T.);
#173=ORIENTED_EDGE('',*,*,#206,.F.);
#174=ORIENTED_EDGE('',*,*,#211,.F.);
#175=ORIENTED_EDGE('',*,*,#210,.F.);
#176=ORIENTED_EDGE('',*,*,#209,.F.);
#177=ORIENTED_EDGE('',*,*,#212,.T.);
#178=ORIENTED_EDGE('',*,*,#212,.F.);
#179=ORIENTED_EDGE('',*,*,#213,.T.);
#180=ORIENTED_EDGE('',*,*,#213,.F.);
#181=ORIENTED_EDGE('',*,*,#208,.F.);
#182=VERTEX_POINT('',#332);
#183=VERTEX_POINT('',#334);
#184=VERTEX_POINT('',#337);
#185=VERTEX_POINT('',#339);
#186=VERTEX_POINT('',#342);
#187=VERTEX_POINT('',#345);
#188=VERTEX_POINT('',#348);
#189=VERTEX_POINT('',#351);
#190=VERTEX_POINT('',#353);
#191=VERTEX_POINT('',#359);
#192=VERTEX_POINT('',#361);
#193=VERTEX_POINT('',#364);
#194=VERTEX_POINT('',#366);
#195=VERTEX_POINT('',#371);
#196=VERTEX_POINT('',#372);
#197=VERTEX_POINT('',#375);
#198=VERTEX_POINT('',#378);
#199=EDGE_CURVE('',#182,#182,#214,.T.);
#200=EDGE_CURVE('',#183,#183,#215,.T.);
#201=EDGE_CURVE('',#184,#184,#216,.T.);
#202=EDGE_CURVE('',#185,#185,#217,.T.);
#203=EDGE_CURVE('',#186,#186,#218,.T.);
#204=EDGE_CURVE('',#187,#187,#219,.T.);
#205=EDGE_CURVE('',#188,#188,#220,.T.);
#206=EDGE_CURVE('',#189,#189,#221,.T.);
#207=EDGE_CURVE('',#190,#190,#222,.T.);
#208=EDGE_CURVE('',#191,#191,#223,.T.);
#209=EDGE_CURVE('',#192,#192,#224,.T.);
#210=EDGE_CURVE('',#193,#193,#225,.T.);
#211=EDGE_CURVE('',#194,#194,#226,.T.);
#212=EDGE_CURVE('',#195,#195,#227,.T.);
#213=EDGE_CURVE('',#197,#197,#228,.T.);
#214=CIRCLE('',#231,11.6038438705393);
#215=CIRCLE('',#232,9.62061475842818);
#216=CIRCLE('',#234,11.7244586289675);
#217=CIRCLE('',#235,11.7244586289675);
#218=CIRCLE('',#237,6.23303355790009);
#219=CIRCLE('',#239,2.91376115250736);
#220=CIRCLE('',#241,1.99446539527367);
#221=CIRCLE('',#243,9.5);
#222=CIRCLE('',#244,9.5);
#223=CIRCLE('',#249,3.57735);
#224=CIRCLE('',#250,9.49999999999999);
#225=CIRCLE('',#252,9.99999999999999);
#226=CIRCLE('',#253,9.99999999999999);
#227=CIRCLE('',#257,3.);
#228=CIRCLE('',#259,3.);
#229=CIRCLE('',#262,5.);
#230=AXIS2_PLACEMENT_3D('',#330,#263,#264);
#231=AXIS2_PLACEMENT_3D('',#331,#265,#266);
#232=AXIS2_PLACEMENT_3D('',#333,#267,#268);
#233=AXIS2_PLACEMENT_3D('',#335,#269,#270);
#234=AXIS2_PLACEMENT_3D('',#336,#271,#272);
#235=AXIS2_PLACEMENT_3D('',#338,#273,#274);
#236=AXIS2_PLACEMENT_3D('',#340,#275,#276);
#237=AXIS2_PLACEMENT_3D('',#341,#277,#278);
#238=AXIS2_PLACEMENT_3D('',#343,#279,#280);
#239=AXIS2_PLACEMENT_3D('',#344,#281,#282);
#240=AXIS2_PLACEMENT_3D('',#346,#283,#284);
#241=AXIS2_PLACEMENT_3D('',#347,#285,#286);
#242=AXIS2_PLACEMENT_3D('',#349,#287,#288);
#243=AXIS2_PLACEMENT_3D('',#350,#289,#290);
#244=AXIS2_PLACEMENT_3D('',#352,#291,#292);
#245=AXIS2_PLACEMENT_3D('',#354,#293,#294);
#246=AXIS2_PLACEMENT_3D('',#355,#295,#296);
#247=AXIS2_PLACEMENT_3D('',#356,#297,#298);
#248=AXIS2_PLACEMENT_3D('',#357,#299,#300);
#249=AXIS2_PLACEMENT_3D('',#358,#301,#302);
#250=AXIS2_PLACEMENT_3D('',#360,#303,#304);
#251=AXIS2_PLACEMENT_3D('',#362,#305,#306);
#252=AXIS2_PLACEMENT_3D('',#363,#307,#308);
#253=AXIS2_PLACEMENT_3D('',#365,#309,#310);
#254=AXIS2_PLACEMENT_3D('',#367,#311,#312);
#255=AXIS2_PLACEMENT_3D('',#368,#313,#314);
#256=AXIS2_PLACEMENT_3D('',#369,#315,#316);
#257=AXIS2_PLACEMENT_3D('',#370,#317,#318);
#258=AXIS2_PLACEMENT_3D('',#373,#319,#320);
#259=AXIS2_PLACEMENT_3D('',#374,#321,#322);
#260=AXIS2_PLACEMENT_3D('',#376,#323,#324);
#261=AXIS2_PLACEMENT_3D('',#377,#325,#326);
#262=AXIS2_PLACEMENT_3D('',#379,#327,#328);
#263=DIRECTION('',(0.,0.,1.));
#264=DIRECTION('',(1.,0.,0.));
#265=DIRECTION('',(0.,0.,1.));
#266=DIRECTION('',(1.,0.,0.));
#267=DIRECTION('',(0.,0.,-1.));
#268=DIRECTION('',(-1.,0.,0.));
#269=DIRECTION('',(0.,0.,-1.));
#270=DIRECTION('',(-1.,0.,2.87982402993596E-016));
#271=DIRECTION('',(0.,0.,-1.));
#272=DIRECTION('',(-1.,0.,0.));
#273=DIRECTION('',(0.,0.,1.));
#274=DIRECTION('',(1.,0.,0.));
#275=DIRECTION('',(0.,0.,1.));
#276=DIRECTION('',(1.,0.,0.));
#277=DIRECTION('',(0.,0.,1.));
#278=DIRECTION('',(1.,0.,0.));
#279=DIRECTION('',(0.,0.,1.));
#280=DIRECTION('',(1.,0.,0.));
#281=DIRECTION('',(0.,0.,1.));
#282=DIRECTION('',(-1.,0.,0.));
#283=DIRECTION('',(0.,0.,-1.));
#284=DIRECTION('',(-1.,0.,-2.90992503387727E-017));
#285=DIRECTION('',(0.,0.,-1.));
#286=DIRECTION('',(-1.,0.,0.));
#287=DIRECTION('',(0.,0.,-1.));
#288=DIRECTION('',(-1.,0.,0.));
#289=DIRECTION('',(0.,0.,-1.));
#290=DIRECTION('',(1.,0.,0.));
#291=DIRECTION('',(0.,0.,1.));
#292=DIRECTION('',(1.,0.,0.));
#293=DIRECTION('',(0.,0.,1.));
#294=DIRECTION('',(1.,0.,0.));
#295=DIRECTION('',(0.,0.,-1.));
#296=DIRECTION('',(-1.,0.,0.));
#297=DIRECTION('',(0.,0.,-1.));
#298=DIRECTION('',(-1.,0.,0.));
#299=DIRECTION('',(0.,0.,1.));
#300=DIRECTION('',(1.,0.,0.));
#301=DIRECTION('',(0.,0.,-1.));
#302=DIRECTION('',(-1.,0.,0.));
#303=DIRECTION('',(0.,0.,1.));
#304=DIRECTION('',(1.,0.,0.));
#305=DIRECTION('',(0.,0.,1.));
#306=DIRECTION('',(1.,0.,0.));
#307=DIRECTION('',(0.,0.,-1.));
#308=DIRECTION('',(1.,0.,0.));
#309=DIRECTION('',(0.,0.,1.));
#310=DIRECTION('',(1.,0.,0.));
#311=DIRECTION('',(0.,0.,1.));
#312=DIRECTION('',(1.,0.,0.));
#313=DIRECTION('',(0.,0.,1.));
#314=DIRECTION('',(1.,0.,0.));
#315=DIRECTION('',(0.,0.,-1.));
#316=DIRECTION('',(-1.,0.,0.));
#317=DIRECTION('',(0.,0.,1.));
#318=DIRECTION('',(-1.,0.,0.));
#319=DIRECTION('',(0.,0.,1.));
#320=DIRECTION('',(1.,0.,0.));
#321=DIRECTION('',(0.,0.,1.));
#322=DIRECTION('',(-1.,0.,0.));
#323=DIRECTION('',(0.,0.,-1.));
#324=DIRECTION('',(-1.,0.,0.));
#325=DIRECTION('',(0.,0.,1.));
#326=DIRECTION('',(1.,0.,1.91112108970457E-016));
#327=DIRECTION('',(0.0519469085925254,-0.9912060633589,-0.121704801253819));
#328=DIRECTION('',(0.998629534754574,0.0523359562429439,-5.89805981832114E-017));
#329=DIRECTION('',(0.,0.,-1.));
#330=CARTESIAN_POINT('',(0.,0.,0.));
#331=CARTESIAN_POINT('',(0.,0.,-27.134734292228));
#332=CARTESIAN_POINT('',(11.6038438705393,0.,-27.134734292228));
#333=CARTESIAN_POINT('',(0.,0.,-21.6858570890976));
#334=CARTESIAN_POINT('',(-9.62061475842818,0.,-21.6858570890976));
#335=CARTESIAN_POINT('',(0.,0.,-21.3544707638632));
#336=CARTESIAN_POINT('',(0.,0.,-27.8187745788793));
#337=CARTESIAN_POINT('',(-11.7244586289675,0.,-27.8187745788793));
#338=CARTESIAN_POINT('',(0.,0.,-29.1661206174624));
#339=CARTESIAN_POINT('',(11.7244586289675,0.,-29.1661206174624));
#340=CARTESIAN_POINT('',(0.,0.,0.));
#341=CARTESIAN_POINT('',(0.,0.,-32.0205855583521));
#342=CARTESIAN_POINT('',(6.23303355790009,0.,-32.0205855583521));
#343=CARTESIAN_POINT('',(0.,0.,-29.1661206174624));
#344=CARTESIAN_POINT('',(0.,0.,-29.6904598857873));
#345=CARTESIAN_POINT('',(-2.91376115250736,0.,-29.6904598857873));
#346=CARTESIAN_POINT('',(0.,0.,-32.0205855583521));
#347=CARTESIAN_POINT('',(0.,0.,-29.4));
#348=CARTESIAN_POINT('',(-1.99446539527367,0.,-29.4));
#349=CARTESIAN_POINT('',(2.5,0.,-29.4));
#350=CARTESIAN_POINT('',(0.,0.,-0.866025403784438));
#351=CARTESIAN_POINT('',(9.5,0.,-0.866025403784438));
#352=CARTESIAN_POINT('',(0.,0.,-21.0018168024463));
#353=CARTESIAN_POINT('',(9.5,0.,-21.0018168024463));
#354=CARTESIAN_POINT('',(0.,0.,0.));
#355=CARTESIAN_POINT('',(0.,0.,-31.));
#356=CARTESIAN_POINT('',(0.,0.,-27.8187745788793));
#357=CARTESIAN_POINT('',(0.,0.,-21.0018168024463));
#358=CARTESIAN_POINT('',(0.,0.,136.));
#359=CARTESIAN_POINT('',(-3.57735,0.,136.));
#360=CARTESIAN_POINT('',(0.,0.,136.));
#361=CARTESIAN_POINT('',(9.49999999999999,0.,136.));
#362=CARTESIAN_POINT('',(0.,0.,136.));
#363=CARTESIAN_POINT('',(0.,0.,135.5));
#364=CARTESIAN_POINT('',(9.99999999999999,0.,135.5));
#365=CARTESIAN_POINT('',(0.,0.,0.));
#366=CARTESIAN_POINT('',(9.99999999999999,0.,0.));
#367=CARTESIAN_POINT('',(0.,0.,-34.));
#368=CARTESIAN_POINT('',(0.,0.,-0.866025403784438));
#369=CARTESIAN_POINT('',(0.,0.,136.));
#370=CARTESIAN_POINT('',(0.,0.,-4.));
#371=CARTESIAN_POINT('',(-3.,0.,-4.));
#372=CARTESIAN_POINT('',(0.,0.,-5.73205080756888));
#373=CARTESIAN_POINT('',(0.,0.,-4.));
#374=CARTESIAN_POINT('',(0.,0.,135.00000046625));
#375=CARTESIAN_POINT('',(-3.,0.,135.00000046625));
#376=CARTESIAN_POINT('',(0.,0.,-4.));
#377=CARTESIAN_POINT('',(0.,0.,136.));
#378=CARTESIAN_POINT('',(12.4747938997847,-0.346010264052778,-29.0371697545877));
#379=CARTESIAN_POINT('',(7.48164622601187,-0.607690045267497,-29.0371697545877));
#380=CARTESIAN_POINT('',(0.,0.,0.));
#381=MECHANICAL_DESIGN_GEOMETRIC_PRESENTATION_REPRESENTATION('',(#35,#36),
#382);
#382=(
GEOMETRIC_REPRESENTATION_CONTEXT(3)
GLOBAL_UNCERTAINTY_ASSIGNED_CONTEXT((#383))
GLOBAL_UNIT_ASSIGNED_CONTEXT((#389,#385,#384))
REPRESENTATION_CONTEXT('25E2R034A20_SRC10_C_SIM',
'TOP_LEVEL_ASSEMBLY_PART')
);
#383=UNCERTAINTY_MEASURE_WITH_UNIT(LENGTH_MEASURE(2.E-005),#389,
'DISTANCE_ACCURACY_VALUE','Maximum Tolerance applied to model');
#384=(
NAMED_UNIT(*)
SI_UNIT($,.STERADIAN.)
SOLID_ANGLE_UNIT()
);
#385=(
CONVERSION_BASED_UNIT('DEGREE',#387)
NAMED_UNIT(#386)
PLANE_ANGLE_UNIT()
);
#386=DIMENSIONAL_EXPONENTS(0.,0.,0.,0.,0.,0.,0.);
#387=PLANE_ANGLE_MEASURE_WITH_UNIT(PLANE_ANGLE_MEASURE(0.0174532925),#388);
#388=(
NAMED_UNIT(*)
PLANE_ANGLE_UNIT()
SI_UNIT($,.RADIAN.)
);
#389=(
LENGTH_UNIT()
NAMED_UNIT(*)
SI_UNIT(.MILLI.,.METRE.)
);
ENDSEC;
END-ISO-10303-21;
