ISO-10303-21;
HEADER;
/* Generated by software containing ST-Developer
 * from STEP Tools, Inc. (www.steptools.com) 
 */
/* OPTION: using custom schema-name function */

FILE_DESCRIPTION(
/* description */ (''),
/* implementation_level */ '2;1');

FILE_NAME(
/* name */ '25E2R032M12_SRC10_C_SIM.stp',
/* time_stamp */ '2017-05-12T10:35:19+02:00',
/* author */ (''),
/* organization */ (''),
/* preprocessor_version */ 'ST-DEVELOPER v15',
/* originating_system */ 'SIEMENS PLM Software NX 8.5',
/* authorisation */ '');

FILE_SCHEMA (('AUTOMOTIVE_DESIGN { 1 0 10303 214 3 1 1 1 }'));
ENDSEC;

DATA;
#10=PROPERTY_DEFINITION_REPRESENTATION(#14,#12);
#11=PROPERTY_DEFINITION_REPRESENTATION(#15,#13);
#12=REPRESENTATION('',(#16),#522);
#13=REPRESENTATION('',(#17),#522);
#14=PROPERTY_DEFINITION('pmi validation property','',#21);
#15=PROPERTY_DEFINITION('pmi validation property','',#21);
#16=VALUE_REPRESENTATION_ITEM('number of annotations',COUNT_MEASURE(0.));
#17=VALUE_REPRESENTATION_ITEM('number of views',COUNT_MEASURE(0.));
#18=SHAPE_REPRESENTATION_RELATIONSHIP('None',
'relationship between hm150500DB9Ctnhv-None and hm150500DB9Ctnhv-None',
#30,#19);
#19=ADVANCED_BREP_SHAPE_REPRESENTATION('hm150500DB9Ctnhv-None',(#51,#52),
#522);
#20=SHAPE_DEFINITION_REPRESENTATION(#21,#30);
#21=PRODUCT_DEFINITION_SHAPE('','',#22);
#22=PRODUCT_DEFINITION(' ','',#24,#23);
#23=PRODUCT_DEFINITION_CONTEXT('part definition',#29,'design');
#24=PRODUCT_DEFINITION_FORMATION_WITH_SPECIFIED_SOURCE(' ',' ',#26,
 .NOT_KNOWN.);
#25=PRODUCT_RELATED_PRODUCT_CATEGORY('part','',(#26));
#26=PRODUCT('hm150500DB9Ctnhv','hm150500DB9Ctnhv',' ',(#27));
#27=PRODUCT_CONTEXT(' ',#29,'mechanical');
#28=APPLICATION_PROTOCOL_DEFINITION('international standard',
'automotive_design',2010,#29);
#29=APPLICATION_CONTEXT(
'core data for automotive mechanical design processes');
#30=SHAPE_REPRESENTATION('hm150500DB9Ctnhv-None',(#307),#522);
#31=SURFACE_OF_REVOLUTION('',#306,#32);
#32=AXIS1_PLACEMENT('',#520,#448);
#33=PRESENTATION_LAYER_ASSIGNMENT('14','Layer 14',(#51));
#34=PRESENTATION_LAYER_ASSIGNMENT('60','Layer 60',(#52));
#35=STYLED_ITEM('',(#37),#51);
#36=STYLED_ITEM('',(#38),#52);
#37=PRESENTATION_STYLE_ASSIGNMENT((#39));
#38=PRESENTATION_STYLE_ASSIGNMENT((#40));
#39=SURFACE_STYLE_USAGE(.BOTH.,#41);
#40=SURFACE_STYLE_USAGE(.BOTH.,#42);
#41=SURFACE_SIDE_STYLE('',(#43));
#42=SURFACE_SIDE_STYLE('',(#44));
#43=SURFACE_STYLE_FILL_AREA(#45);
#44=SURFACE_STYLE_FILL_AREA(#46);
#45=FILL_AREA_STYLE('',(#47));
#46=FILL_AREA_STYLE('',(#48));
#47=FILL_AREA_STYLE_COLOUR('',#49);
#48=FILL_AREA_STYLE_COLOUR('',#50);
#49=COLOUR_RGB('Silver Gray',0.6,0.6,0.6);
#50=COLOUR_RGB('Light Gray',0.8,0.8,0.8);
#51=MANIFOLD_SOLID_BREP('',#53);
#52=MANIFOLD_SOLID_BREP('',#54);
#53=CLOSED_SHELL('',(#78,#79,#80,#81,#82,#83,#84,#85,#86,#87,#88,#89,#90,
#91,#92,#93,#94,#95,#96,#97,#98,#99,#100));
#54=CLOSED_SHELL('',(#101));
#55=VERTEX_LOOP('',#259);
#56=VERTEX_LOOP('',#261);
#57=FACE_OUTER_BOUND('',#160,.T.);
#58=TOROIDAL_SURFACE('',#318,8.23686488834388,3.48759374062358);
#59=TOROIDAL_SURFACE('',#326,2.4310724233514,1.6);
#60=TOROIDAL_SURFACE('',#327,9.72445862896746,2.);
#61=TOROIDAL_SURFACE('',#328,12.5,2.);
#62=TOROIDAL_SURFACE('',#332,6.44999999999999,0.399999999999999);
#63=TOROIDAL_SURFACE('',#336,6.44999999999999,0.4);
#64=CYLINDRICAL_SURFACE('',#316,11.7244586289675);
#65=CYLINDRICAL_SURFACE('',#325,10.5);
#66=CYLINDRICAL_SURFACE('',#334,6.04999999999999);
#67=CYLINDRICAL_SURFACE('',#342,6.);
#68=CYLINDRICAL_SURFACE('',#344,6.24999999999999);
#69=CYLINDRICAL_SURFACE('',#351,2.);
#70=CONICAL_SURFACE('',#313,10.5,30.);
#71=CONICAL_SURFACE('',#320,6.0350236553482,50.8512885229948);
#72=CONICAL_SURFACE('',#330,7.24907116054874,75.);
#73=CONICAL_SURFACE('',#345,6.,45.);
#74=CONICAL_SURFACE('',#346,6.24999999999999,45.);
#75=CONICAL_SURFACE('',#347,10.,45.);
#76=CONICAL_SURFACE('',#349,2.,60.);
#77=CONICAL_SURFACE('',#352,2.57735,30.);
#78=ADVANCED_FACE('',(#105,#106),#102,.T.);
#79=ADVANCED_FACE('',(#107,#108),#70,.T.);
#80=ADVANCED_FACE('',(#109,#110),#64,.T.);
#81=ADVANCED_FACE('',(#111,#112),#58,.T.);
#82=ADVANCED_FACE('',(#113,#114),#71,.F.);
#83=ADVANCED_FACE('',(#57),#103,.T.);
#84=ADVANCED_FACE('',(#115,#116),#65,.T.);
#85=ADVANCED_FACE('',(#117,#118),#59,.F.);
#86=ADVANCED_FACE('',(#119,#120),#60,.T.);
#87=ADVANCED_FACE('',(#121,#122),#61,.F.);
#88=ADVANCED_FACE('',(#123,#124),#72,.F.);
#89=ADVANCED_FACE('',(#125,#126),#62,.F.);
#90=ADVANCED_FACE('',(#127,#128),#66,.T.);
#91=ADVANCED_FACE('',(#129,#130),#63,.F.);
#92=ADVANCED_FACE('',(#131,#132),#104,.F.);
#93=ADVANCED_FACE('',(#133,#134),#67,.T.);
#94=ADVANCED_FACE('',(#135,#136),#68,.T.);
#95=ADVANCED_FACE('',(#137,#138),#73,.T.);
#96=ADVANCED_FACE('',(#139,#140),#74,.T.);
#97=ADVANCED_FACE('',(#141,#142),#75,.T.);
#98=ADVANCED_FACE('',(#143,#144),#76,.F.);
#99=ADVANCED_FACE('',(#145,#146),#69,.F.);
#100=ADVANCED_FACE('',(#147,#148),#77,.F.);
#101=ADVANCED_FACE('',(#149),#31,.F.);
#102=PLANE('',#310);
#103=PLANE('',#322);
#104=PLANE('',#339);
#105=FACE_BOUND('',#150,.T.);
#106=FACE_BOUND('',#151,.T.);
#107=FACE_BOUND('',#152,.T.);
#108=FACE_BOUND('',#153,.T.);
#109=FACE_BOUND('',#154,.T.);
#110=FACE_BOUND('',#155,.T.);
#111=FACE_BOUND('',#156,.T.);
#112=FACE_BOUND('',#157,.T.);
#113=FACE_BOUND('',#158,.T.);
#114=FACE_BOUND('',#159,.T.);
#115=FACE_BOUND('',#161,.T.);
#116=FACE_BOUND('',#162,.T.);
#117=FACE_BOUND('',#163,.T.);
#118=FACE_BOUND('',#164,.T.);
#119=FACE_BOUND('',#165,.T.);
#120=FACE_BOUND('',#166,.T.);
#121=FACE_BOUND('',#167,.T.);
#122=FACE_BOUND('',#168,.T.);
#123=FACE_BOUND('',#169,.T.);
#124=FACE_BOUND('',#170,.T.);
#125=FACE_BOUND('',#171,.T.);
#126=FACE_BOUND('',#172,.T.);
#127=FACE_BOUND('',#173,.T.);
#128=FACE_BOUND('',#174,.T.);
#129=FACE_BOUND('',#175,.T.);
#130=FACE_BOUND('',#176,.T.);
#131=FACE_BOUND('',#177,.T.);
#132=FACE_BOUND('',#178,.T.);
#133=FACE_BOUND('',#179,.T.);
#134=FACE_BOUND('',#180,.T.);
#135=FACE_BOUND('',#181,.T.);
#136=FACE_BOUND('',#182,.T.);
#137=FACE_BOUND('',#183,.T.);
#138=FACE_BOUND('',#184,.T.);
#139=FACE_BOUND('',#185,.T.);
#140=FACE_BOUND('',#186,.T.);
#141=FACE_BOUND('',#187,.T.);
#142=FACE_BOUND('',#188,.T.);
#143=FACE_BOUND('',#189,.T.);
#144=FACE_BOUND('',#55,.T.);
#145=FACE_BOUND('',#190,.T.);
#146=FACE_BOUND('',#191,.T.);
#147=FACE_BOUND('',#192,.T.);
#148=FACE_BOUND('',#193,.T.);
#149=FACE_BOUND('',#56,.T.);
#150=EDGE_LOOP('',(#194));
#151=EDGE_LOOP('',(#195));
#152=EDGE_LOOP('',(#196));
#153=EDGE_LOOP('',(#197));
#154=EDGE_LOOP('',(#198));
#155=EDGE_LOOP('',(#199));
#156=EDGE_LOOP('',(#200));
#157=EDGE_LOOP('',(#201));
#158=EDGE_LOOP('',(#202));
#159=EDGE_LOOP('',(#203));
#160=EDGE_LOOP('',(#204));
#161=EDGE_LOOP('',(#205));
#162=EDGE_LOOP('',(#206));
#163=EDGE_LOOP('',(#207));
#164=EDGE_LOOP('',(#208));
#165=EDGE_LOOP('',(#209));
#166=EDGE_LOOP('',(#210));
#167=EDGE_LOOP('',(#211));
#168=EDGE_LOOP('',(#212));
#169=EDGE_LOOP('',(#213));
#170=EDGE_LOOP('',(#214));
#171=EDGE_LOOP('',(#215));
#172=EDGE_LOOP('',(#216));
#173=EDGE_LOOP('',(#217));
#174=EDGE_LOOP('',(#218));
#175=EDGE_LOOP('',(#219));
#176=EDGE_LOOP('',(#220));
#177=EDGE_LOOP('',(#221));
#178=EDGE_LOOP('',(#222));
#179=EDGE_LOOP('',(#223));
#180=EDGE_LOOP('',(#224));
#181=EDGE_LOOP('',(#225));
#182=EDGE_LOOP('',(#226));
#183=EDGE_LOOP('',(#227));
#184=EDGE_LOOP('',(#228));
#185=EDGE_LOOP('',(#229));
#186=EDGE_LOOP('',(#230));
#187=EDGE_LOOP('',(#231));
#188=EDGE_LOOP('',(#232));
#189=EDGE_LOOP('',(#233));
#190=EDGE_LOOP('',(#234));
#191=EDGE_LOOP('',(#235));
#192=EDGE_LOOP('',(#236));
#193=EDGE_LOOP('',(#237));
#194=ORIENTED_EDGE('',*,*,#262,.T.);
#195=ORIENTED_EDGE('',*,*,#263,.T.);
#196=ORIENTED_EDGE('',*,*,#264,.T.);
#197=ORIENTED_EDGE('',*,*,#265,.T.);
#198=ORIENTED_EDGE('',*,*,#266,.T.);
#199=ORIENTED_EDGE('',*,*,#267,.T.);
#200=ORIENTED_EDGE('',*,*,#268,.T.);
#201=ORIENTED_EDGE('',*,*,#267,.F.);
#202=ORIENTED_EDGE('',*,*,#269,.T.);
#203=ORIENTED_EDGE('',*,*,#268,.F.);
#204=ORIENTED_EDGE('',*,*,#270,.T.);
#205=ORIENTED_EDGE('',*,*,#271,.T.);
#206=ORIENTED_EDGE('',*,*,#272,.T.);
#207=ORIENTED_EDGE('',*,*,#270,.F.);
#208=ORIENTED_EDGE('',*,*,#269,.F.);
#209=ORIENTED_EDGE('',*,*,#266,.F.);
#210=ORIENTED_EDGE('',*,*,#264,.F.);
#211=ORIENTED_EDGE('',*,*,#265,.F.);
#212=ORIENTED_EDGE('',*,*,#272,.F.);
#213=ORIENTED_EDGE('',*,*,#273,.F.);
#214=ORIENTED_EDGE('',*,*,#263,.F.);
#215=ORIENTED_EDGE('',*,*,#274,.F.);
#216=ORIENTED_EDGE('',*,*,#273,.T.);
#217=ORIENTED_EDGE('',*,*,#275,.F.);
#218=ORIENTED_EDGE('',*,*,#274,.T.);
#219=ORIENTED_EDGE('',*,*,#276,.T.);
#220=ORIENTED_EDGE('',*,*,#275,.T.);
#221=ORIENTED_EDGE('',*,*,#277,.T.);
#222=ORIENTED_EDGE('',*,*,#278,.T.);
#223=ORIENTED_EDGE('',*,*,#279,.T.);
#224=ORIENTED_EDGE('',*,*,#280,.F.);
#225=ORIENTED_EDGE('',*,*,#281,.T.);
#226=ORIENTED_EDGE('',*,*,#276,.F.);
#227=ORIENTED_EDGE('',*,*,#278,.F.);
#228=ORIENTED_EDGE('',*,*,#279,.F.);
#229=ORIENTED_EDGE('',*,*,#280,.T.);
#230=ORIENTED_EDGE('',*,*,#281,.F.);
#231=ORIENTED_EDGE('',*,*,#271,.F.);
#232=ORIENTED_EDGE('',*,*,#262,.F.);
#233=ORIENTED_EDGE('',*,*,#282,.T.);
#234=ORIENTED_EDGE('',*,*,#282,.F.);
#235=ORIENTED_EDGE('',*,*,#283,.T.);
#236=ORIENTED_EDGE('',*,*,#283,.F.);
#237=ORIENTED_EDGE('',*,*,#277,.F.);
#238=VERTEX_POINT('',#451);
#239=VERTEX_POINT('',#453);
#240=VERTEX_POINT('',#456);
#241=VERTEX_POINT('',#458);
#242=VERTEX_POINT('',#461);
#243=VERTEX_POINT('',#463);
#244=VERTEX_POINT('',#466);
#245=VERTEX_POINT('',#469);
#246=VERTEX_POINT('',#472);
#247=VERTEX_POINT('',#475);
#248=VERTEX_POINT('',#477);
#249=VERTEX_POINT('',#483);
#250=VERTEX_POINT('',#486);
#251=VERTEX_POINT('',#489);
#252=VERTEX_POINT('',#492);
#253=VERTEX_POINT('',#495);
#254=VERTEX_POINT('',#497);
#255=VERTEX_POINT('',#500);
#256=VERTEX_POINT('',#502);
#257=VERTEX_POINT('',#505);
#258=VERTEX_POINT('',#511);
#259=VERTEX_POINT('',#512);
#260=VERTEX_POINT('',#515);
#261=VERTEX_POINT('',#518);
#262=EDGE_CURVE('',#238,#238,#284,.T.);
#263=EDGE_CURVE('',#239,#239,#285,.T.);
#264=EDGE_CURVE('',#240,#240,#286,.T.);
#265=EDGE_CURVE('',#241,#241,#287,.T.);
#266=EDGE_CURVE('',#242,#242,#288,.T.);
#267=EDGE_CURVE('',#243,#243,#289,.T.);
#268=EDGE_CURVE('',#244,#244,#290,.T.);
#269=EDGE_CURVE('',#245,#245,#291,.T.);
#270=EDGE_CURVE('',#246,#246,#292,.T.);
#271=EDGE_CURVE('',#247,#247,#293,.T.);
#272=EDGE_CURVE('',#248,#248,#294,.T.);
#273=EDGE_CURVE('',#249,#249,#295,.T.);
#274=EDGE_CURVE('',#250,#250,#296,.T.);
#275=EDGE_CURVE('',#251,#251,#297,.T.);
#276=EDGE_CURVE('',#252,#252,#298,.T.);
#277=EDGE_CURVE('',#253,#253,#299,.T.);
#278=EDGE_CURVE('',#254,#254,#300,.T.);
#279=EDGE_CURVE('',#255,#255,#301,.T.);
#280=EDGE_CURVE('',#256,#256,#302,.T.);
#281=EDGE_CURVE('',#257,#257,#303,.T.);
#282=EDGE_CURVE('',#258,#258,#304,.T.);
#283=EDGE_CURVE('',#260,#260,#305,.T.);
#284=CIRCLE('',#308,10.);
#285=CIRCLE('',#309,7.24907116054874);
#286=CIRCLE('',#311,11.4565094365363);
#287=CIRCLE('',#312,10.7679491924311);
#288=CIRCLE('',#314,11.7244586289675);
#289=CIRCLE('',#315,11.7244586289675);
#290=CIRCLE('',#317,6.0350236553482);
#291=CIRCLE('',#319,3.44120899165572);
#292=CIRCLE('',#321,2.4310724233514);
#293=CIRCLE('',#323,10.5);
#294=CIRCLE('',#324,10.5);
#295=CIRCLE('',#329,6.553527618041);
#296=CIRCLE('',#331,6.04999999999999);
#297=CIRCLE('',#333,6.04999999999999);
#298=CIRCLE('',#335,6.24999999999999);
#299=CIRCLE('',#337,2.57735);
#300=CIRCLE('',#338,5.);
#301=CIRCLE('',#340,6.);
#302=CIRCLE('',#341,6.);
#303=CIRCLE('',#343,6.24999999999999);
#304=CIRCLE('',#348,2.);
#305=CIRCLE('',#350,2.);
#306=CIRCLE('',#353,5.);
#307=AXIS2_PLACEMENT_3D('',#449,#354,#355);
#308=AXIS2_PLACEMENT_3D('',#450,#356,#357);
#309=AXIS2_PLACEMENT_3D('',#452,#358,#359);
#310=AXIS2_PLACEMENT_3D('',#454,#360,#361);
#311=AXIS2_PLACEMENT_3D('',#455,#362,#363);
#312=AXIS2_PLACEMENT_3D('',#457,#364,#365);
#313=AXIS2_PLACEMENT_3D('',#459,#366,#367);
#314=AXIS2_PLACEMENT_3D('',#460,#368,#369);
#315=AXIS2_PLACEMENT_3D('',#462,#370,#371);
#316=AXIS2_PLACEMENT_3D('',#464,#372,#373);
#317=AXIS2_PLACEMENT_3D('',#465,#374,#375);
#318=AXIS2_PLACEMENT_3D('',#467,#376,#377);
#319=AXIS2_PLACEMENT_3D('',#468,#378,#379);
#320=AXIS2_PLACEMENT_3D('',#470,#380,#381);
#321=AXIS2_PLACEMENT_3D('',#471,#382,#383);
#322=AXIS2_PLACEMENT_3D('',#473,#384,#385);
#323=AXIS2_PLACEMENT_3D('',#474,#386,#387);
#324=AXIS2_PLACEMENT_3D('',#476,#388,#389);
#325=AXIS2_PLACEMENT_3D('',#478,#390,#391);
#326=AXIS2_PLACEMENT_3D('',#479,#392,#393);
#327=AXIS2_PLACEMENT_3D('',#480,#394,#395);
#328=AXIS2_PLACEMENT_3D('',#481,#396,#397);
#329=AXIS2_PLACEMENT_3D('',#482,#398,#399);
#330=AXIS2_PLACEMENT_3D('',#484,#400,#401);
#331=AXIS2_PLACEMENT_3D('',#485,#402,#403);
#332=AXIS2_PLACEMENT_3D('',#487,#404,#405);
#333=AXIS2_PLACEMENT_3D('',#488,#406,#407);
#334=AXIS2_PLACEMENT_3D('',#490,#408,#409);
#335=AXIS2_PLACEMENT_3D('',#491,#410,#411);
#336=AXIS2_PLACEMENT_3D('',#493,#412,#413);
#337=AXIS2_PLACEMENT_3D('',#494,#414,#415);
#338=AXIS2_PLACEMENT_3D('',#496,#416,#417);
#339=AXIS2_PLACEMENT_3D('',#498,#418,#419);
#340=AXIS2_PLACEMENT_3D('',#499,#420,#421);
#341=AXIS2_PLACEMENT_3D('',#501,#422,#423);
#342=AXIS2_PLACEMENT_3D('',#503,#424,#425);
#343=AXIS2_PLACEMENT_3D('',#504,#426,#427);
#344=AXIS2_PLACEMENT_3D('',#506,#428,#429);
#345=AXIS2_PLACEMENT_3D('',#507,#430,#431);
#346=AXIS2_PLACEMENT_3D('',#508,#432,#433);
#347=AXIS2_PLACEMENT_3D('',#509,#434,#435);
#348=AXIS2_PLACEMENT_3D('',#510,#436,#437);
#349=AXIS2_PLACEMENT_3D('',#513,#438,#439);
#350=AXIS2_PLACEMENT_3D('',#514,#440,#441);
#351=AXIS2_PLACEMENT_3D('',#516,#442,#443);
#352=AXIS2_PLACEMENT_3D('',#517,#444,#445);
#353=AXIS2_PLACEMENT_3D('',#519,#446,#447);
#354=DIRECTION('',(0.,0.,1.));
#355=DIRECTION('',(1.,0.,0.));
#356=DIRECTION('',(0.,0.,1.));
#357=DIRECTION('',(1.,0.,0.));
#358=DIRECTION('',(0.,0.,-1.));
#359=DIRECTION('',(-1.,0.,0.));
#360=DIRECTION('',(0.,0.,1.));
#361=DIRECTION('',(1.,0.,0.));
#362=DIRECTION('',(0.,0.,1.));
#363=DIRECTION('',(1.,0.,0.));
#364=DIRECTION('',(0.,0.,-1.));
#365=DIRECTION('',(-1.,0.,0.));
#366=DIRECTION('',(0.,0.,-1.));
#367=DIRECTION('',(-1.,0.,-5.90192287695366E-018));
#368=DIRECTION('',(0.,0.,-1.));
#369=DIRECTION('',(-1.,0.,0.));
#370=DIRECTION('',(0.,0.,1.));
#371=DIRECTION('',(1.,0.,0.));
#372=DIRECTION('',(0.,0.,1.));
#373=DIRECTION('',(1.,0.,0.));
#374=DIRECTION('',(0.,0.,1.));
#375=DIRECTION('',(1.,0.,0.));
#376=DIRECTION('',(0.,0.,1.));
#377=DIRECTION('',(1.,0.,0.));
#378=DIRECTION('',(0.,0.,1.));
#379=DIRECTION('',(-1.,0.,0.));
#380=DIRECTION('',(0.,0.,-1.));
#381=DIRECTION('',(-1.,0.,1.12425413967271E-017));
#382=DIRECTION('',(0.,0.,-1.));
#383=DIRECTION('',(-1.,0.,0.));
#384=DIRECTION('',(0.,0.,-1.));
#385=DIRECTION('',(-1.,0.,0.));
#386=DIRECTION('',(0.,0.,-1.));
#387=DIRECTION('',(1.,0.,0.));
#388=DIRECTION('',(0.,0.,1.));
#389=DIRECTION('',(1.,0.,0.));
#390=DIRECTION('',(0.,0.,1.));
#391=DIRECTION('',(1.,0.,0.));
#392=DIRECTION('',(0.,0.,-1.));
#393=DIRECTION('',(-1.,0.,0.));
#394=DIRECTION('',(0.,0.,-1.));
#395=DIRECTION('',(-1.,0.,0.));
#396=DIRECTION('',(0.,0.,1.));
#397=DIRECTION('',(1.,0.,0.));
#398=DIRECTION('',(0.,0.,1.));
#399=DIRECTION('',(-1.,0.,0.));
#400=DIRECTION('',(0.,0.,1.));
#401=DIRECTION('',(1.,0.,-7.75973862008373E-019));
#402=DIRECTION('',(0.,0.,1.));
#403=DIRECTION('',(-1.,0.,0.));
#404=DIRECTION('',(0.,0.,-1.));
#405=DIRECTION('',(-1.,0.,0.));
#406=DIRECTION('',(0.,0.,1.));
#407=DIRECTION('',(-1.,0.,0.));
#408=DIRECTION('',(0.,0.,-1.));
#409=DIRECTION('',(-1.,0.,0.));
#410=DIRECTION('',(0.,0.,-1.));
#411=DIRECTION('',(-1.,0.,0.));
#412=DIRECTION('',(0.,0.,-1.));
#413=DIRECTION('',(-1.,0.,0.));
#414=DIRECTION('',(0.,0.,-1.));
#415=DIRECTION('',(-1.,0.,0.));
#416=DIRECTION('',(0.,0.,1.));
#417=DIRECTION('',(-1.,0.,0.));
#418=DIRECTION('',(0.,0.,-1.));
#419=DIRECTION('',(-1.,0.,0.));
#420=DIRECTION('',(0.,0.,-1.));
#421=DIRECTION('',(-1.,0.,0.));
#422=DIRECTION('',(0.,0.,-1.));
#423=DIRECTION('',(-1.,0.,0.));
#424=DIRECTION('',(0.,0.,-1.));
#425=DIRECTION('',(-1.,0.,0.));
#426=DIRECTION('',(0.,0.,-1.));
#427=DIRECTION('',(-1.,0.,0.));
#428=DIRECTION('',(0.,0.,-1.));
#429=DIRECTION('',(-1.,0.,0.));
#430=DIRECTION('',(0.,0.,-1.));
#431=DIRECTION('',(-1.,0.,2.06925265524073E-017));
#432=DIRECTION('',(0.,0.,-1.));
#433=DIRECTION('',(-1.,0.,3.44789759200359E-017));
#434=DIRECTION('',(0.,0.,-1.));
#435=DIRECTION('',(-1.,0.,0.));
#436=DIRECTION('',(0.,0.,1.));
#437=DIRECTION('',(-1.,0.,0.));
#438=DIRECTION('',(0.,0.,1.));
#439=DIRECTION('',(1.,0.,-4.00155166943205E-018));
#440=DIRECTION('',(0.,0.,1.));
#441=DIRECTION('',(-1.,0.,0.));
#442=DIRECTION('',(0.,0.,-1.));
#443=DIRECTION('',(-1.,0.,0.));
#444=DIRECTION('',(0.,0.,1.));
#445=DIRECTION('',(1.,0.,3.58953100747475E-017));
#446=DIRECTION('',(0.0519469085925254,-0.9912060633589,-0.121704801253819));
#447=DIRECTION('',(0.998629534754574,0.0523359562429438,-6.24500451351651E-017));
#448=DIRECTION('',(0.,0.,-1.));
#449=CARTESIAN_POINT('',(0.,0.,0.));
#450=CARTESIAN_POINT('',(0.,0.,0.));
#451=CARTESIAN_POINT('',(10.,0.,0.));
#452=CARTESIAN_POINT('',(0.,0.,2.9015989681051E-015));
#453=CARTESIAN_POINT('',(-7.24907116054874,0.,2.9015989681051E-015));
#454=CARTESIAN_POINT('',(0.,0.,0.));
#455=CARTESIAN_POINT('',(0.,0.,-25.0020190023247));
#456=CARTESIAN_POINT('',(11.4565094365363,0.,-25.0020190023247));
#457=CARTESIAN_POINT('',(0.,0.,-23.8093976754624));
#458=CARTESIAN_POINT('',(-10.7679491924311,0.,-23.8093976754624));
#459=CARTESIAN_POINT('',(0.,0.,-23.3452960603246));
#460=CARTESIAN_POINT('',(0.,0.,-26.0020190023247));
#461=CARTESIAN_POINT('',(-11.7244586289675,0.,-26.0020190023247));
#462=CARTESIAN_POINT('',(0.,0.,-27.1661206174624));
#463=CARTESIAN_POINT('',(11.7244586289675,0.,-27.1661206174624));
#464=CARTESIAN_POINT('',(0.,0.,0.));
#465=CARTESIAN_POINT('',(0.,0.,-29.8707842350528));
#466=CARTESIAN_POINT('',(6.0350236553482,0.,-29.8707842350528));
#467=CARTESIAN_POINT('',(0.,0.,-27.1661206174624));
#468=CARTESIAN_POINT('',(0.,0.,-27.7591840936809));
#469=CARTESIAN_POINT('',(-3.44120899165572,0.,-27.7591840936809));
#470=CARTESIAN_POINT('',(0.,0.,-29.8707842350528));
#471=CARTESIAN_POINT('',(0.,0.,-27.4));
#472=CARTESIAN_POINT('',(-2.4310724233514,0.,-27.4));
#473=CARTESIAN_POINT('',(3.,0.,-27.4));
#474=CARTESIAN_POINT('',(0.,0.,-0.5));
#475=CARTESIAN_POINT('',(10.5,0.,-0.5));
#476=CARTESIAN_POINT('',(0.,0.,-22.8093976754624));
#477=CARTESIAN_POINT('',(10.5,0.,-22.8093976754624));
#478=CARTESIAN_POINT('',(0.,0.,0.));
#479=CARTESIAN_POINT('',(0.,0.,-29.));
#480=CARTESIAN_POINT('',(0.,0.,-26.0020190023247));
#481=CARTESIAN_POINT('',(0.,0.,-22.8093976754624));
#482=CARTESIAN_POINT('',(0.,0.,-0.186370330515627));
#483=CARTESIAN_POINT('',(-6.553527618041,0.,-0.186370330515627));
#484=CARTESIAN_POINT('',(0.,0.,2.9015989681051E-015));
#485=CARTESIAN_POINT('',(0.,0.,0.2));
#486=CARTESIAN_POINT('',(-6.04999999999999,0.,0.2));
#487=CARTESIAN_POINT('',(0.,0.,0.2));
#488=CARTESIAN_POINT('',(0.,0.,1.15358983848623));
#489=CARTESIAN_POINT('',(-6.04999999999999,0.,1.15358983848623));
#490=CARTESIAN_POINT('',(0.,0.,0.));
#491=CARTESIAN_POINT('',(0.,0.,1.5));
#492=CARTESIAN_POINT('',(-6.24999999999999,0.,1.5));
#493=CARTESIAN_POINT('',(0.,0.,1.15358983848623));
#494=CARTESIAN_POINT('',(0.,0.,22.));
#495=CARTESIAN_POINT('',(-2.57735,0.,22.));
#496=CARTESIAN_POINT('',(0.,0.,22.));
#497=CARTESIAN_POINT('',(-5.,0.,22.));
#498=CARTESIAN_POINT('',(0.,0.,22.));
#499=CARTESIAN_POINT('',(0.,0.,21.));
#500=CARTESIAN_POINT('',(-6.,0.,21.));
#501=CARTESIAN_POINT('',(0.,0.,5.));
#502=CARTESIAN_POINT('',(-6.,0.,5.));
#503=CARTESIAN_POINT('',(0.,0.,-32.));
#504=CARTESIAN_POINT('',(0.,0.,4.75));
#505=CARTESIAN_POINT('',(-6.24999999999999,0.,4.75));
#506=CARTESIAN_POINT('',(0.,0.,-32.));
#507=CARTESIAN_POINT('',(0.,0.,21.));
#508=CARTESIAN_POINT('',(0.,0.,4.75));
#509=CARTESIAN_POINT('',(0.,0.,0.));
#510=CARTESIAN_POINT('',(0.,0.,-14.));
#511=CARTESIAN_POINT('',(-2.,0.,-14.));
#512=CARTESIAN_POINT('',(0.,0.,-15.1547005383793));
#513=CARTESIAN_POINT('',(0.,0.,-14.));
#514=CARTESIAN_POINT('',(0.,0.,21.0000004662501));
#515=CARTESIAN_POINT('',(-2.,0.,21.0000004662501));
#516=CARTESIAN_POINT('',(0.,0.,-14.));
#517=CARTESIAN_POINT('',(0.,0.,22.));
#518=CARTESIAN_POINT('',(12.4747938997847,-0.346010264052776,-27.0371697545877));
#519=CARTESIAN_POINT('',(7.48164622601188,-0.607690045267495,-27.0371697545877));
#520=CARTESIAN_POINT('',(0.,0.,22.));
#521=MECHANICAL_DESIGN_GEOMETRIC_PRESENTATION_REPRESENTATION('',(#35,#36),
#522);
#522=(
GEOMETRIC_REPRESENTATION_CONTEXT(3)
GLOBAL_UNCERTAINTY_ASSIGNED_CONTEXT((#523))
GLOBAL_UNIT_ASSIGNED_CONTEXT((#529,#525,#524))
REPRESENTATION_CONTEXT('25E2R032M12_SRC10_C_SIM',
'TOP_LEVEL_ASSEMBLY_PART')
);
#523=UNCERTAINTY_MEASURE_WITH_UNIT(LENGTH_MEASURE(2.E-005),#529,
'DISTANCE_ACCURACY_VALUE','Maximum Tolerance applied to model');
#524=(
NAMED_UNIT(*)
SI_UNIT($,.STERADIAN.)
SOLID_ANGLE_UNIT()
);
#525=(
CONVERSION_BASED_UNIT('DEGREE',#527)
NAMED_UNIT(#526)
PLANE_ANGLE_UNIT()
);
#526=DIMENSIONAL_EXPONENTS(0.,0.,0.,0.,0.,0.,0.);
#527=PLANE_ANGLE_MEASURE_WITH_UNIT(PLANE_ANGLE_MEASURE(0.0174532925),#528);
#528=(
NAMED_UNIT(*)
PLANE_ANGLE_UNIT()
SI_UNIT($,.RADIAN.)
);
#529=(
LENGTH_UNIT()
NAMED_UNIT(*)
SI_UNIT(.MILLI.,.METRE.)
);
ENDSEC;
END-ISO-10303-21;
