ISO-10303-21;
HEADER;
/* Generated by software containing ST-Developer
 * from STEP Tools, Inc. (www.steptools.com) 
 */
/* OPTION: using custom schema-name function */

FILE_DESCRIPTION(
/* description */ (''),
/* implementation_level */ '2;1');

FILE_NAME(
/* name */ '20N2R032B20_SSE09_C_115009398ndi000_00_SIM.stp',
/* time_stamp */ '2020-01-07T12:56:22+01:00',
/* author */ (''),
/* organization */ (''),
/* preprocessor_version */ 'ST-DEVELOPER v16.7',
/* originating_system */ 'SIEMENS PLM Software NX 12.0',
/* authorisation */ '');

FILE_SCHEMA (('AUTOMOTIVE_DESIGN { 1 0 10303 214 3 1 1 1 }'));
ENDSEC;

DATA;
#10=PROPERTY_DEFINITION_REPRESENTATION(#14,#12);
#11=PROPERTY_DEFINITION_REPRESENTATION(#15,#13);
#12=REPRESENTATION('',(#16),#556);
#13=REPRESENTATION('',(#17),#556);
#14=PROPERTY_DEFINITION('pmi validation property','',#21);
#15=PROPERTY_DEFINITION('pmi validation property','',#21);
#16=VALUE_REPRESENTATION_ITEM('number of annotations',COUNT_MEASURE(0.));
#17=VALUE_REPRESENTATION_ITEM('number of views',COUNT_MEASURE(0.));
#18=SHAPE_REPRESENTATION_RELATIONSHIP('None',
'relationship between wq7003709718qib0-None and wq7003709718qib0-None',
#30,#19);
#19=ADVANCED_BREP_SHAPE_REPRESENTATION('wq7003709718qib0-None',(#63,#64),
#556);
#20=SHAPE_DEFINITION_REPRESENTATION(#21,#30);
#21=PRODUCT_DEFINITION_SHAPE('','',#22);
#22=PRODUCT_DEFINITION(' ','',#24,#23);
#23=PRODUCT_DEFINITION_CONTEXT('part definition',#29,'design');
#24=PRODUCT_DEFINITION_FORMATION_WITH_SPECIFIED_SOURCE(' ',' ',#26,
 .NOT_KNOWN.);
#25=PRODUCT_RELATED_PRODUCT_CATEGORY('part','',(#26));
#26=PRODUCT('wq7003709718qib0','wq7003709718qib0',' ',(#27));
#27=PRODUCT_CONTEXT(' ',#29,'mechanical');
#28=APPLICATION_PROTOCOL_DEFINITION('international standard',
'automotive_design',2010,#29);
#29=APPLICATION_CONTEXT(
'core data for automotive mechanical design processes');
#30=SHAPE_REPRESENTATION('wq7003709718qib0-None',(#312),#556);
#31=VERTEX_LOOP('',#263);
#32=CYLINDRICAL_SURFACE('',#335,14.735);
#33=CYLINDRICAL_SURFACE('',#339,9.);
#34=CYLINDRICAL_SURFACE('',#344,3.1);
#35=CYLINDRICAL_SURFACE('',#351,9.98525);
#36=CONICAL_SURFACE('',#329,2.61165797456025,43.);
#37=CONICAL_SURFACE('',#333,9.555,47.9);
#38=CONICAL_SURFACE('',#337,15.6395280956807,30.);
#39=CONICAL_SURFACE('',#342,3.1,70.);
#40=CONICAL_SURFACE('',#346,4.1,45.);
#41=CONICAL_SURFACE('',#350,8.98525,45.);
#42=FACE_OUTER_BOUND('',#175,.T.);
#43=TOROIDAL_SURFACE('',#325,10.1,1.1);
#44=TOROIDAL_SURFACE('',#340,14.,5.);
#45=PRESENTATION_LAYER_ASSIGNMENT('96','Layer 96',(#63));
#46=PRESENTATION_LAYER_ASSIGNMENT('14','Layer 14',(#64));
#47=STYLED_ITEM('',(#49),#63);
#48=STYLED_ITEM('',(#50),#64);
#49=PRESENTATION_STYLE_ASSIGNMENT((#51));
#50=PRESENTATION_STYLE_ASSIGNMENT((#52));
#51=SURFACE_STYLE_USAGE(.BOTH.,#53);
#52=SURFACE_STYLE_USAGE(.BOTH.,#54);
#53=SURFACE_SIDE_STYLE('',(#55));
#54=SURFACE_SIDE_STYLE('',(#56));
#55=SURFACE_STYLE_FILL_AREA(#57);
#56=SURFACE_STYLE_FILL_AREA(#58);
#57=FILL_AREA_STYLE('',(#59));
#58=FILL_AREA_STYLE('',(#60));
#59=FILL_AREA_STYLE_COLOUR('',#61);
#60=FILL_AREA_STYLE_COLOUR('',#62);
#61=COLOUR_RGB('Light Gray',0.8,0.8,0.8);
#62=COLOUR_RGB('Silver Gray',0.6,0.6,0.6);
#63=MANIFOLD_SOLID_BREP('',#65);
#64=MANIFOLD_SOLID_BREP('',#66);
#65=CLOSED_SHELL('',(#72,#73,#74,#75,#76,#77,#78,#79));
#66=CLOSED_SHELL('',(#80,#81,#82,#83,#84,#85,#86,#87,#88,#89,#90,#91,#92,
#93,#94));
#67=PLANE('',#318);
#68=PLANE('',#322);
#69=PLANE('',#327);
#70=PLANE('',#331);
#71=PLANE('',#348);
#72=ADVANCED_FACE('',(#113,#114),#95,.T.);
#73=ADVANCED_FACE('',(#115,#116),#96,.T.);
#74=ADVANCED_FACE('',(#117,#118),#97,.T.);
#75=ADVANCED_FACE('',(#119,#120),#67,.F.);
#76=ADVANCED_FACE('',(#121,#122),#98,.T.);
#77=ADVANCED_FACE('',(#123,#124),#99,.T.);
#78=ADVANCED_FACE('',(#125,#126),#100,.T.);
#79=ADVANCED_FACE('',(#127,#128),#68,.F.);
#80=ADVANCED_FACE('',(#129,#130),#43,.F.);
#81=ADVANCED_FACE('',(#42),#69,.T.);
#82=ADVANCED_FACE('',(#131,#132),#36,.F.);
#83=ADVANCED_FACE('',(#133,#134),#70,.T.);
#84=ADVANCED_FACE('',(#135,#136),#37,.T.);
#85=ADVANCED_FACE('',(#137,#138),#32,.T.);
#86=ADVANCED_FACE('',(#139,#140),#38,.T.);
#87=ADVANCED_FACE('',(#141,#142),#33,.T.);
#88=ADVANCED_FACE('',(#143,#144),#44,.F.);
#89=ADVANCED_FACE('',(#145,#146),#39,.F.);
#90=ADVANCED_FACE('',(#147,#148),#34,.F.);
#91=ADVANCED_FACE('',(#149,#150),#40,.F.);
#92=ADVANCED_FACE('',(#151,#152),#71,.T.);
#93=ADVANCED_FACE('',(#153,#154),#41,.T.);
#94=ADVANCED_FACE('',(#155,#156),#35,.T.);
#95=SURFACE_OF_REVOLUTION('',#107,#101);
#96=SURFACE_OF_REVOLUTION('',#108,#102);
#97=SURFACE_OF_REVOLUTION('',#109,#103);
#98=SURFACE_OF_REVOLUTION('',#110,#104);
#99=SURFACE_OF_REVOLUTION('',#111,#105);
#100=SURFACE_OF_REVOLUTION('',#112,#106);
#101=AXIS1_PLACEMENT('',#449,#358);
#102=AXIS1_PLACEMENT('',#458,#361);
#103=AXIS1_PLACEMENT('',#467,#364);
#104=AXIS1_PLACEMENT('',#479,#371);
#105=AXIS1_PLACEMENT('',#488,#374);
#106=AXIS1_PLACEMENT('',#509,#377);
#107=B_SPLINE_CURVE_WITH_KNOTS('',5,(#443,#444,#445,#446,#447,#448),
 .UNSPECIFIED.,.F.,.F.,(6,6),(0.,1.),.UNSPECIFIED.);
#108=B_SPLINE_CURVE_WITH_KNOTS('',5,(#452,#453,#454,#455,#456,#457),
 .UNSPECIFIED.,.F.,.F.,(6,6),(0.,1.),.UNSPECIFIED.);
#109=B_SPLINE_CURVE_WITH_KNOTS('',5,(#461,#462,#463,#464,#465,#466),
 .UNSPECIFIED.,.F.,.F.,(6,6),(0.,1.),.UNSPECIFIED.);
#110=B_SPLINE_CURVE_WITH_KNOTS('',5,(#473,#474,#475,#476,#477,#478),
 .UNSPECIFIED.,.F.,.F.,(6,6),(0.,1.),.UNSPECIFIED.);
#111=B_SPLINE_CURVE_WITH_KNOTS('',5,(#482,#483,#484,#485,#486,#487),
 .UNSPECIFIED.,.F.,.F.,(6,6),(0.,1.),.UNSPECIFIED.);
#112=B_SPLINE_CURVE_WITH_KNOTS('',5,(#491,#492,#493,#494,#495,#496,#497,
#498,#499,#500,#501,#502,#503,#504,#505,#506,#507,#508),.UNSPECIFIED.,.F.,
 .F.,(6,1,1,1,1,1,1,1,1,1,1,1,1,6),(0.,0.0814775383581221,0.133326482976147,
0.19628975403547,0.234178538172969,0.311104251421831,0.36665999713658,0.425919700475872,
0.466660880519376,0.540735578290725,0.655551638148265,0.770367744963747,
0.885183865267365,1.),.UNSPECIFIED.);
#113=FACE_BOUND('',#157,.T.);
#114=FACE_BOUND('',#158,.T.);
#115=FACE_BOUND('',#159,.T.);
#116=FACE_BOUND('',#160,.T.);
#117=FACE_BOUND('',#161,.T.);
#118=FACE_BOUND('',#162,.T.);
#119=FACE_BOUND('',#163,.T.);
#120=FACE_BOUND('',#164,.T.);
#121=FACE_BOUND('',#165,.T.);
#122=FACE_BOUND('',#166,.T.);
#123=FACE_BOUND('',#167,.T.);
#124=FACE_BOUND('',#168,.T.);
#125=FACE_BOUND('',#169,.T.);
#126=FACE_BOUND('',#170,.T.);
#127=FACE_BOUND('',#171,.T.);
#128=FACE_BOUND('',#172,.T.);
#129=FACE_BOUND('',#173,.T.);
#130=FACE_BOUND('',#174,.T.);
#131=FACE_BOUND('',#176,.T.);
#132=FACE_BOUND('',#177,.T.);
#133=FACE_BOUND('',#178,.T.);
#134=FACE_BOUND('',#179,.T.);
#135=FACE_BOUND('',#180,.T.);
#136=FACE_BOUND('',#181,.T.);
#137=FACE_BOUND('',#182,.T.);
#138=FACE_BOUND('',#183,.T.);
#139=FACE_BOUND('',#184,.T.);
#140=FACE_BOUND('',#185,.T.);
#141=FACE_BOUND('',#186,.T.);
#142=FACE_BOUND('',#187,.T.);
#143=FACE_BOUND('',#188,.T.);
#144=FACE_BOUND('',#189,.T.);
#145=FACE_BOUND('',#190,.T.);
#146=FACE_BOUND('',#31,.T.);
#147=FACE_BOUND('',#191,.T.);
#148=FACE_BOUND('',#192,.T.);
#149=FACE_BOUND('',#193,.T.);
#150=FACE_BOUND('',#194,.T.);
#151=FACE_BOUND('',#195,.T.);
#152=FACE_BOUND('',#196,.T.);
#153=FACE_BOUND('',#197,.T.);
#154=FACE_BOUND('',#198,.T.);
#155=FACE_BOUND('',#199,.T.);
#156=FACE_BOUND('',#200,.T.);
#157=EDGE_LOOP('',(#201));
#158=EDGE_LOOP('',(#202));
#159=EDGE_LOOP('',(#203));
#160=EDGE_LOOP('',(#204));
#161=EDGE_LOOP('',(#205));
#162=EDGE_LOOP('',(#206));
#163=EDGE_LOOP('',(#207));
#164=EDGE_LOOP('',(#208));
#165=EDGE_LOOP('',(#209));
#166=EDGE_LOOP('',(#210));
#167=EDGE_LOOP('',(#211));
#168=EDGE_LOOP('',(#212));
#169=EDGE_LOOP('',(#213));
#170=EDGE_LOOP('',(#214));
#171=EDGE_LOOP('',(#215));
#172=EDGE_LOOP('',(#216));
#173=EDGE_LOOP('',(#217));
#174=EDGE_LOOP('',(#218));
#175=EDGE_LOOP('',(#219));
#176=EDGE_LOOP('',(#220));
#177=EDGE_LOOP('',(#221));
#178=EDGE_LOOP('',(#222));
#179=EDGE_LOOP('',(#223));
#180=EDGE_LOOP('',(#224));
#181=EDGE_LOOP('',(#225));
#182=EDGE_LOOP('',(#226));
#183=EDGE_LOOP('',(#227));
#184=EDGE_LOOP('',(#228));
#185=EDGE_LOOP('',(#229));
#186=EDGE_LOOP('',(#230));
#187=EDGE_LOOP('',(#231));
#188=EDGE_LOOP('',(#232));
#189=EDGE_LOOP('',(#233));
#190=EDGE_LOOP('',(#234));
#191=EDGE_LOOP('',(#235));
#192=EDGE_LOOP('',(#236));
#193=EDGE_LOOP('',(#237));
#194=EDGE_LOOP('',(#238));
#195=EDGE_LOOP('',(#239));
#196=EDGE_LOOP('',(#240));
#197=EDGE_LOOP('',(#241));
#198=EDGE_LOOP('',(#242));
#199=EDGE_LOOP('',(#243));
#200=EDGE_LOOP('',(#244));
#201=ORIENTED_EDGE('',*,*,#268,.T.);
#202=ORIENTED_EDGE('',*,*,#269,.T.);
#203=ORIENTED_EDGE('',*,*,#270,.T.);
#204=ORIENTED_EDGE('',*,*,#268,.F.);
#205=ORIENTED_EDGE('',*,*,#271,.T.);
#206=ORIENTED_EDGE('',*,*,#270,.F.);
#207=ORIENTED_EDGE('',*,*,#272,.T.);
#208=ORIENTED_EDGE('',*,*,#271,.F.);
#209=ORIENTED_EDGE('',*,*,#273,.F.);
#210=ORIENTED_EDGE('',*,*,#272,.F.);
#211=ORIENTED_EDGE('',*,*,#274,.F.);
#212=ORIENTED_EDGE('',*,*,#273,.T.);
#213=ORIENTED_EDGE('',*,*,#275,.F.);
#214=ORIENTED_EDGE('',*,*,#274,.T.);
#215=ORIENTED_EDGE('',*,*,#269,.F.);
#216=ORIENTED_EDGE('',*,*,#275,.T.);
#217=ORIENTED_EDGE('',*,*,#276,.F.);
#218=ORIENTED_EDGE('',*,*,#277,.F.);
#219=ORIENTED_EDGE('',*,*,#278,.T.);
#220=ORIENTED_EDGE('',*,*,#279,.T.);
#221=ORIENTED_EDGE('',*,*,#278,.F.);
#222=ORIENTED_EDGE('',*,*,#280,.T.);
#223=ORIENTED_EDGE('',*,*,#279,.F.);
#224=ORIENTED_EDGE('',*,*,#281,.T.);
#225=ORIENTED_EDGE('',*,*,#280,.F.);
#226=ORIENTED_EDGE('',*,*,#282,.F.);
#227=ORIENTED_EDGE('',*,*,#281,.F.);
#228=ORIENTED_EDGE('',*,*,#283,.T.);
#229=ORIENTED_EDGE('',*,*,#282,.T.);
#230=ORIENTED_EDGE('',*,*,#284,.T.);
#231=ORIENTED_EDGE('',*,*,#276,.T.);
#232=ORIENTED_EDGE('',*,*,#283,.F.);
#233=ORIENTED_EDGE('',*,*,#284,.F.);
#234=ORIENTED_EDGE('',*,*,#285,.T.);
#235=ORIENTED_EDGE('',*,*,#286,.T.);
#236=ORIENTED_EDGE('',*,*,#285,.F.);
#237=ORIENTED_EDGE('',*,*,#286,.F.);
#238=ORIENTED_EDGE('',*,*,#287,.F.);
#239=ORIENTED_EDGE('',*,*,#288,.T.);
#240=ORIENTED_EDGE('',*,*,#287,.T.);
#241=ORIENTED_EDGE('',*,*,#289,.F.);
#242=ORIENTED_EDGE('',*,*,#288,.F.);
#243=ORIENTED_EDGE('',*,*,#289,.T.);
#244=ORIENTED_EDGE('',*,*,#277,.T.);
#245=VERTEX_POINT('',#440);
#246=VERTEX_POINT('',#442);
#247=VERTEX_POINT('',#451);
#248=VERTEX_POINT('',#460);
#249=VERTEX_POINT('',#469);
#250=VERTEX_POINT('',#472);
#251=VERTEX_POINT('',#481);
#252=VERTEX_POINT('',#490);
#253=VERTEX_POINT('',#512);
#254=VERTEX_POINT('',#514);
#255=VERTEX_POINT('',#517);
#256=VERTEX_POINT('',#520);
#257=VERTEX_POINT('',#523);
#258=VERTEX_POINT('',#526);
#259=VERTEX_POINT('',#529);
#260=VERTEX_POINT('',#532);
#261=VERTEX_POINT('',#535);
#262=VERTEX_POINT('',#539);
#263=VERTEX_POINT('',#540);
#264=VERTEX_POINT('',#543);
#265=VERTEX_POINT('',#546);
#266=VERTEX_POINT('',#549);
#267=VERTEX_POINT('',#552);
#268=EDGE_CURVE('',#245,#245,#290,.T.);
#269=EDGE_CURVE('',#246,#246,#291,.T.);
#270=EDGE_CURVE('',#247,#247,#292,.T.);
#271=EDGE_CURVE('',#248,#248,#293,.T.);
#272=EDGE_CURVE('',#249,#249,#294,.T.);
#273=EDGE_CURVE('',#250,#250,#295,.T.);
#274=EDGE_CURVE('',#251,#251,#296,.T.);
#275=EDGE_CURVE('',#252,#252,#297,.T.);
#276=EDGE_CURVE('',#253,#253,#298,.T.);
#277=EDGE_CURVE('',#254,#254,#299,.T.);
#278=EDGE_CURVE('',#255,#255,#300,.T.);
#279=EDGE_CURVE('',#256,#256,#301,.T.);
#280=EDGE_CURVE('',#257,#257,#302,.T.);
#281=EDGE_CURVE('',#258,#258,#303,.T.);
#282=EDGE_CURVE('',#259,#259,#304,.T.);
#283=EDGE_CURVE('',#260,#260,#305,.T.);
#284=EDGE_CURVE('',#261,#261,#306,.T.);
#285=EDGE_CURVE('',#262,#262,#307,.T.);
#286=EDGE_CURVE('',#264,#264,#308,.T.);
#287=EDGE_CURVE('',#265,#265,#309,.T.);
#288=EDGE_CURVE('',#266,#266,#310,.T.);
#289=EDGE_CURVE('',#267,#267,#311,.T.);
#290=CIRCLE('',#313,14.781874187813);
#291=CIRCLE('',#314,9.56707282925455);
#292=CIRCLE('',#315,14.8177576372825);
#293=CIRCLE('',#316,10.0000000000001);
#294=CIRCLE('',#317,8.58313203687284);
#295=CIRCLE('',#319,3.09372901758114);
#296=CIRCLE('',#320,2.91702285580909);
#297=CIRCLE('',#321,8.07459213104);
#298=CIRCLE('',#323,9.);
#299=CIRCLE('',#324,9.98525);
#300=CIRCLE('',#326,2.61165797456025);
#301=CIRCLE('',#328,8.3);
#302=CIRCLE('',#330,9.555);
#303=CIRCLE('',#332,14.735);
#304=CIRCLE('',#334,14.735);
#305=CIRCLE('',#336,9.6698729810778);
#306=CIRCLE('',#338,9.);
#307=CIRCLE('',#341,3.1);
#308=CIRCLE('',#343,3.1);
#309=CIRCLE('',#345,4.1);
#310=CIRCLE('',#347,8.98525);
#311=CIRCLE('',#349,9.98525);
#312=AXIS2_PLACEMENT_3D('',#438,#352,#353);
#313=AXIS2_PLACEMENT_3D('',#439,#354,#355);
#314=AXIS2_PLACEMENT_3D('',#441,#356,#357);
#315=AXIS2_PLACEMENT_3D('',#450,#359,#360);
#316=AXIS2_PLACEMENT_3D('',#459,#362,#363);
#317=AXIS2_PLACEMENT_3D('',#468,#365,#366);
#318=AXIS2_PLACEMENT_3D('',#470,#367,#368);
#319=AXIS2_PLACEMENT_3D('',#471,#369,#370);
#320=AXIS2_PLACEMENT_3D('',#480,#372,#373);
#321=AXIS2_PLACEMENT_3D('',#489,#375,#376);
#322=AXIS2_PLACEMENT_3D('',#510,#378,#379);
#323=AXIS2_PLACEMENT_3D('',#511,#380,#381);
#324=AXIS2_PLACEMENT_3D('',#513,#382,#383);
#325=AXIS2_PLACEMENT_3D('',#515,#384,#385);
#326=AXIS2_PLACEMENT_3D('',#516,#386,#387);
#327=AXIS2_PLACEMENT_3D('',#518,#388,#389);
#328=AXIS2_PLACEMENT_3D('',#519,#390,#391);
#329=AXIS2_PLACEMENT_3D('',#521,#392,#393);
#330=AXIS2_PLACEMENT_3D('',#522,#394,#395);
#331=AXIS2_PLACEMENT_3D('',#524,#396,#397);
#332=AXIS2_PLACEMENT_3D('',#525,#398,#399);
#333=AXIS2_PLACEMENT_3D('',#527,#400,#401);
#334=AXIS2_PLACEMENT_3D('',#528,#402,#403);
#335=AXIS2_PLACEMENT_3D('',#530,#404,#405);
#336=AXIS2_PLACEMENT_3D('',#531,#406,#407);
#337=AXIS2_PLACEMENT_3D('',#533,#408,#409);
#338=AXIS2_PLACEMENT_3D('',#534,#410,#411);
#339=AXIS2_PLACEMENT_3D('',#536,#412,#413);
#340=AXIS2_PLACEMENT_3D('',#537,#414,#415);
#341=AXIS2_PLACEMENT_3D('',#538,#416,#417);
#342=AXIS2_PLACEMENT_3D('',#541,#418,#419);
#343=AXIS2_PLACEMENT_3D('',#542,#420,#421);
#344=AXIS2_PLACEMENT_3D('',#544,#422,#423);
#345=AXIS2_PLACEMENT_3D('',#545,#424,#425);
#346=AXIS2_PLACEMENT_3D('',#547,#426,#427);
#347=AXIS2_PLACEMENT_3D('',#548,#428,#429);
#348=AXIS2_PLACEMENT_3D('',#550,#430,#431);
#349=AXIS2_PLACEMENT_3D('',#551,#432,#433);
#350=AXIS2_PLACEMENT_3D('',#553,#434,#435);
#351=AXIS2_PLACEMENT_3D('',#554,#436,#437);
#352=DIRECTION('',(0.,0.,1.));
#353=DIRECTION('',(1.,0.,0.));
#354=DIRECTION('',(0.,0.,1.));
#355=DIRECTION('',(-1.,0.,0.));
#356=DIRECTION('',(0.,0.,-1.));
#357=DIRECTION('',(-1.,0.,0.));
#358=DIRECTION('',(0.,0.,-1.));
#359=DIRECTION('',(0.,0.,1.));
#360=DIRECTION('',(-1.,0.,0.));
#361=DIRECTION('',(0.,0.,-1.));
#362=DIRECTION('',(0.,0.,1.));
#363=DIRECTION('',(-1.,0.,0.));
#364=DIRECTION('',(0.,0.,-1.));
#365=DIRECTION('',(0.,0.,1.));
#366=DIRECTION('',(-1.,0.,0.));
#367=DIRECTION('',(0.,0.,1.));
#368=DIRECTION('',(1.,0.,0.));
#369=DIRECTION('',(0.,0.,-1.));
#370=DIRECTION('',(-1.,0.,0.));
#371=DIRECTION('',(0.,0.,-1.));
#372=DIRECTION('',(0.,0.,-1.));
#373=DIRECTION('',(-1.,0.,0.));
#374=DIRECTION('',(0.,0.,-1.));
#375=DIRECTION('',(0.,0.,-1.));
#376=DIRECTION('',(-1.,0.,0.));
#377=DIRECTION('',(0.,0.,-1.));
#378=DIRECTION('',(0.,0.,-1.));
#379=DIRECTION('',(-1.,0.,0.));
#380=DIRECTION('',(0.,0.,-1.));
#381=DIRECTION('',(1.,0.,0.));
#382=DIRECTION('',(0.,0.,1.));
#383=DIRECTION('',(-1.,0.,0.));
#384=DIRECTION('',(0.,0.,1.));
#385=DIRECTION('',(1.,0.,0.));
#386=DIRECTION('',(0.,0.,-1.));
#387=DIRECTION('',(-1.,0.,0.));
#388=DIRECTION('',(0.,0.,-1.));
#389=DIRECTION('',(-1.,0.,0.));
#390=DIRECTION('',(0.,0.,-1.));
#391=DIRECTION('',(-1.,0.,0.));
#392=DIRECTION('',(0.,0.,-1.));
#393=DIRECTION('',(-1.,0.,-1.03883794647459E-16));
#394=DIRECTION('',(0.,0.,-1.));
#395=DIRECTION('',(-1.,0.,0.));
#396=DIRECTION('',(0.,0.,-1.));
#397=DIRECTION('',(-1.,0.,0.));
#398=DIRECTION('',(0.,0.,-1.));
#399=DIRECTION('',(-1.,0.,0.));
#400=DIRECTION('',(0.,0.,1.));
#401=DIRECTION('',(1.,0.,1.86483131302261E-17));
#402=DIRECTION('',(0.,0.,1.));
#403=DIRECTION('',(-1.,0.,0.));
#404=DIRECTION('',(0.,0.,-1.));
#405=DIRECTION('',(-1.,0.,0.));
#406=DIRECTION('',(0.,0.,-1.));
#407=DIRECTION('',(-1.,0.,0.));
#408=DIRECTION('',(0.,0.,-1.));
#409=DIRECTION('',(-1.,0.,-1.34567711384316E-16));
#410=DIRECTION('',(0.,0.,1.));
#411=DIRECTION('',(1.,0.,0.));
#412=DIRECTION('',(0.,0.,1.));
#413=DIRECTION('',(1.,0.,0.));
#414=DIRECTION('',(0.,0.,1.));
#415=DIRECTION('',(1.,0.,0.));
#416=DIRECTION('',(0.,0.,1.));
#417=DIRECTION('',(-1.,0.,0.));
#418=DIRECTION('',(0.,0.,1.));
#419=DIRECTION('',(1.,0.,1.513622671697E-17));
#420=DIRECTION('',(0.,0.,1.));
#421=DIRECTION('',(1.,0.,0.));
#422=DIRECTION('',(0.,0.,-1.));
#423=DIRECTION('',(-1.,0.,0.));
#424=DIRECTION('',(0.,0.,-1.));
#425=DIRECTION('',(1.,0.,0.));
#426=DIRECTION('',(0.,0.,1.));
#427=DIRECTION('',(1.,0.,1.382112121085E-17));
#428=DIRECTION('',(0.,0.,1.));
#429=DIRECTION('',(1.,0.,0.));
#430=DIRECTION('',(0.,0.,1.));
#431=DIRECTION('',(1.,0.,0.));
#432=DIRECTION('',(0.,0.,-1.));
#433=DIRECTION('',(1.,0.,0.));
#434=DIRECTION('',(0.,0.,-1.));
#435=DIRECTION('',(-1.,0.,1.37542028565972E-17));
#436=DIRECTION('',(0.,0.,-1.));
#437=DIRECTION('',(-1.,0.,0.));
#438=CARTESIAN_POINT('',(0.,0.,0.));
#439=CARTESIAN_POINT('',(0.,0.,-33.6398323973954));
#440=CARTESIAN_POINT('',(-14.781874187813,0.,-33.6398323973954));
#441=CARTESIAN_POINT('',(0.,0.,-28.6968867405739));
#442=CARTESIAN_POINT('',(-9.56707282925455,0.,-28.6968867405739));
#443=CARTESIAN_POINT('',(9.56707282925455,0.,-28.6968867405739));
#444=CARTESIAN_POINT('',(10.5942542997783,8.58693975956955E-32,-29.7018798165036));
#445=CARTESIAN_POINT('',(11.6340910286883,-1.73705709520876E-31,-30.6939724636148));
#446=CARTESIAN_POINT('',(12.6793226174337,-3.84335948853973E-32,-31.6801766132711));
#447=CARTESIAN_POINT('',(13.7290689455062,8.20445985045525E-32,-32.6616665477796));
#448=CARTESIAN_POINT('',(14.781874187813,0.,-33.6398323973954));
#449=CARTESIAN_POINT('',(0.,0.,0.));
#450=CARTESIAN_POINT('',(0.,0.,-35.0570543431783));
#451=CARTESIAN_POINT('',(-14.8177576372825,0.,-35.0570543431783));
#452=CARTESIAN_POINT('',(14.781874187813,-2.16840434497101E-16,-33.6398323973954));
#453=CARTESIAN_POINT('',(14.787426696859,-2.16840434497101E-16,-33.9233147671237));
#454=CARTESIAN_POINT('',(14.7937933231649,-2.16840434497101E-16,-34.206781190436));
#455=CARTESIAN_POINT('',(14.8009722943775,-4.33680868994202E-16,-34.4902286214408));
#456=CARTESIAN_POINT('',(14.8089613250661,-4.33680868994202E-16,-34.773654010344));
#457=CARTESIAN_POINT('',(14.8177576372825,-4.33680868994202E-16,-35.0570543431783));
#458=CARTESIAN_POINT('',(0.,0.,0.));
#459=CARTESIAN_POINT('',(0.,0.,-40.));
#460=CARTESIAN_POINT('',(-10.0000000000001,0.,-40.));
#461=CARTESIAN_POINT('',(14.8177576372825,0.,-35.0570543431783));
#462=CARTESIAN_POINT('',(13.8303245707728,-1.29000557189992E-31,-36.0221727178362));
#463=CARTESIAN_POINT('',(12.8502471653543,-5.34993373380783E-31,-36.994976363));
#464=CARTESIAN_POINT('',(11.8811832902451,-8.72958851362931E-17,-37.9782919727757));
#465=CARTESIAN_POINT('',(10.9251747407162,-8.72958851362931E-17,-38.9753123297511));
#466=CARTESIAN_POINT('',(10.0000000000001,-8.72958851362931E-17,-40.));
#467=CARTESIAN_POINT('',(0.,0.,0.));
#468=CARTESIAN_POINT('',(0.,0.,-40.));
#469=CARTESIAN_POINT('',(-8.58313203687284,0.,-40.));
#470=CARTESIAN_POINT('',(10.0000000000001,0.,-40.));
#471=CARTESIAN_POINT('',(0.,0.,-35.0570543431785));
#472=CARTESIAN_POINT('',(-3.09372901758114,0.,-35.0570543431785));
#473=CARTESIAN_POINT('',(8.58313203687286,1.19262238973406E-15,-40.));
#474=CARTESIAN_POINT('',(7.4843435356435,1.19262238973405E-15,-39.0124190460234));
#475=CARTESIAN_POINT('',(6.38571516390475,1.19262238973405E-15,-38.024654465593));
#476=CARTESIAN_POINT('',(5.28795810233838,3.2526065174565E-16,-37.0359405856065));
#477=CARTESIAN_POINT('',(4.18907692683791,3.25260651745651E-16,-36.0484476018493));
#478=CARTESIAN_POINT('',(3.09372901758114,3.25260651745651E-16,-35.0570543431785));
#479=CARTESIAN_POINT('',(0.,0.,0.));
#480=CARTESIAN_POINT('',(0.,0.,-33.6398323973957));
#481=CARTESIAN_POINT('',(-2.91702285580909,0.,-33.6398323973957));
#482=CARTESIAN_POINT('',(3.09372901758113,6.23416249179165E-16,-35.0570543431785));
#483=CARTESIAN_POINT('',(3.05172052884482,6.23416249179165E-16,-34.7744775047023));
#484=CARTESIAN_POINT('',(3.0128094970394,6.23416249179165E-16,-34.4914403351589));
#485=CARTESIAN_POINT('',(2.97723496962786,2.77826806699411E-16,-34.2079675347367));
#486=CARTESIAN_POINT('',(2.94523665698919,2.77826806699411E-16,-33.9240877895516));
#487=CARTESIAN_POINT('',(2.91702285580909,2.77826806699411E-16,-33.6398323973957));
#488=CARTESIAN_POINT('',(0.,0.,0.));
#489=CARTESIAN_POINT('',(0.,0.,-28.696886740574));
#490=CARTESIAN_POINT('',(-8.07459213104,0.,-28.696886740574));
#491=CARTESIAN_POINT('',(2.91702285580906,0.,-33.6398323973957));
#492=CARTESIAN_POINT('',(2.99561097316181,-8.11820677767584E-33,-33.5539309582835));
#493=CARTESIAN_POINT('',(3.12534588113801,-2.14778045347566E-32,-33.4144050748596));
#494=CARTESIAN_POINT('',(3.31839433228515,-3.93476919700708E-17,-33.2108873148661));
#495=CARTESIAN_POINT('',(3.55205102608241,-9.75627075891086E-17,-32.971263336495));
#496=CARTESIAN_POINT('',(3.86592766872486,-1.2205318774674E-16,-32.6563503085339));
#497=CARTESIAN_POINT('',(4.15620180445022,-1.32199654582817E-16,-32.3702417493388));
#498=CARTESIAN_POINT('',(4.45594919604126,-2.58538421999797E-16,-32.0786869018626));
#499=CARTESIAN_POINT('',(4.73435804367986,-1.85407928963228E-16,-31.810756738421));
#500=CARTESIAN_POINT('',(5.05130664174189,-1.72084378735802E-16,-31.5083081336386));
#501=CARTESIAN_POINT('',(5.40863924627794,-3.33962683801472E-17,-31.1697501048985));
#502=CARTESIAN_POINT('',(5.82892185667001,1.59493793885586E-16,-30.7745056252863));
#503=CARTESIAN_POINT('',(6.30862072853862,-3.50576586602552E-16,-30.3265538387639));
#504=CARTESIAN_POINT('',(6.86736904788716,7.32939531538595E-17,-29.8081567388046));
#505=CARTESIAN_POINT('',(7.3497045937958,-6.29252965649155E-17,-29.3630469453971));
#506=CARTESIAN_POINT('',(7.71198045735637,4.33680868994202E-16,-29.0297840923491));
#507=CARTESIAN_POINT('',(7.95369100064615,4.33680868994202E-16,-28.8078192132085));
#508=CARTESIAN_POINT('',(8.07459213104,4.33680868994202E-16,-28.696886740574));
#509=CARTESIAN_POINT('',(0.,0.,0.));
#510=CARTESIAN_POINT('',(8.07459213104,0.,-28.6968867405739));
#511=CARTESIAN_POINT('',(0.,0.,-9.09544511501033));
#512=CARTESIAN_POINT('',(9.,0.,-9.09544511501033));
#513=CARTESIAN_POINT('',(0.,0.,-8.00144674321082));
#514=CARTESIAN_POINT('',(-9.98525,0.,-8.00144674321082));
#515=CARTESIAN_POINT('',(0.,0.,-9.09544511501034));
#516=CARTESIAN_POINT('',(0.,0.,-33.4));
#517=CARTESIAN_POINT('',(-2.61165797456025,0.,-33.4));
#518=CARTESIAN_POINT('',(1.99840144432528E-15,0.,-33.4));
#519=CARTESIAN_POINT('',(0.,0.,-39.5));
#520=CARTESIAN_POINT('',(-8.3,0.,-39.5));
#521=CARTESIAN_POINT('',(0.,0.,-33.4));
#522=CARTESIAN_POINT('',(0.,0.,-39.5));
#523=CARTESIAN_POINT('',(-9.555,0.,-39.5));
#524=CARTESIAN_POINT('',(8.3,0.,-39.5));
#525=CARTESIAN_POINT('',(0.,0.,-34.8195108325357));
#526=CARTESIAN_POINT('',(-14.735,0.,-34.8195108325357));
#527=CARTESIAN_POINT('',(0.,0.,-39.5));
#528=CARTESIAN_POINT('',(0.,0.,-23.9333113814075));
#529=CARTESIAN_POINT('',(-14.735,0.,-23.9333113814075));
#530=CARTESIAN_POINT('',(0.,0.,-51.9904418359806));
#531=CARTESIAN_POINT('',(0.,0.,-15.1602540378444));
#532=CARTESIAN_POINT('',(-9.6698729810778,0.,-15.1602540378444));
#533=CARTESIAN_POINT('',(0.,0.,-25.5));
#534=CARTESIAN_POINT('',(0.,0.,-12.6602540378444));
#535=CARTESIAN_POINT('',(9.,0.,-12.6602540378444));
#536=CARTESIAN_POINT('',(0.,0.,23.6901923788647));
#537=CARTESIAN_POINT('',(0.,0.,-12.6602540378444));
#538=CARTESIAN_POINT('',(2.16840434497101E-16,0.,-20.5));
#539=CARTESIAN_POINT('',(-3.1,0.,-20.5));
#540=CARTESIAN_POINT('',(2.16840434497101E-16,0.,-21.6283077262252));
#541=CARTESIAN_POINT('',(2.16840434497101E-16,0.,-20.5));
#542=CARTESIAN_POINT('',(2.16840434497101E-16,0.,41.0000000000005));
#543=CARTESIAN_POINT('',(3.1,0.,41.0000000000005));
#544=CARTESIAN_POINT('',(2.16840434497101E-16,0.,49.5));
#545=CARTESIAN_POINT('',(2.16840434497101E-16,0.,42.0000000000005));
#546=CARTESIAN_POINT('',(4.1,0.,42.0000000000005));
#547=CARTESIAN_POINT('',(2.16840434497101E-16,0.,42.0000000000005));
#548=CARTESIAN_POINT('',(0.,0.,42.0000000000005));
#549=CARTESIAN_POINT('',(8.98525,0.,42.0000000000005));
#550=CARTESIAN_POINT('',(-3.5527136788005E-15,2.66453525910038E-15,42.0000000000005));
#551=CARTESIAN_POINT('',(0.,0.,41.0000000000005));
#552=CARTESIAN_POINT('',(9.98525,0.,41.0000000000005));
#553=CARTESIAN_POINT('',(0.,0.,42.0000000000005));
#554=CARTESIAN_POINT('',(0.,0.,-37.196164528366));
#555=MECHANICAL_DESIGN_GEOMETRIC_PRESENTATION_REPRESENTATION('',(#47,#48),
#556);
#556=(
GEOMETRIC_REPRESENTATION_CONTEXT(3)
GLOBAL_UNCERTAINTY_ASSIGNED_CONTEXT((#557))
GLOBAL_UNIT_ASSIGNED_CONTEXT((#563,#559,#558))
REPRESENTATION_CONTEXT('20N2R032B20_SSE09_C_115009398ndi000_00_SIM',
'TOP_LEVEL_ASSEMBLY_PART')
);
#557=UNCERTAINTY_MEASURE_WITH_UNIT(LENGTH_MEASURE(2.E-5),#563,
'DISTANCE_ACCURACY_VALUE','Maximum Tolerance applied to model');
#558=(
NAMED_UNIT(*)
SI_UNIT($,.STERADIAN.)
SOLID_ANGLE_UNIT()
);
#559=(
CONVERSION_BASED_UNIT('DEGREE',#561)
NAMED_UNIT(#560)
PLANE_ANGLE_UNIT()
);
#560=DIMENSIONAL_EXPONENTS(0.,0.,0.,0.,0.,0.,0.);
#561=PLANE_ANGLE_MEASURE_WITH_UNIT(PLANE_ANGLE_MEASURE(0.0174532925),#562);
#562=(
NAMED_UNIT(*)
PLANE_ANGLE_UNIT()
SI_UNIT($,.RADIAN.)
);
#563=(
LENGTH_UNIT()
NAMED_UNIT(*)
SI_UNIT(.MILLI.,.METRE.)
);
ENDSEC;
END-ISO-10303-21;
