ISO-10303-21;
HEADER;
/* Generated by software containing ST-Developer
 * from STEP Tools, Inc. (www.steptools.com) 
 */
/* OPTION: using custom schema-name function */

FILE_DESCRIPTION(
/* description */ (''),
/* implementation_level */ '2;1');

FILE_NAME(
/* name */ '20K3R050A20-CXP20_115009377ndi000_00-SIM.stp',
/* time_stamp */ '2019-12-09T06:54:15+01:00',
/* author */ (''),
/* organization */ (''),
/* preprocessor_version */ 'ST-DEVELOPER v16.7',
/* originating_system */ 'SIEMENS PLM Software NX 12.0',
/* authorisation */ '');

FILE_SCHEMA (('AUTOMOTIVE_DESIGN { 1 0 10303 214 3 1 1 1 }'));
ENDSEC;

DATA;
#10=PROPERTY_DEFINITION_REPRESENTATION(#14,#12);
#11=PROPERTY_DEFINITION_REPRESENTATION(#15,#13);
#12=REPRESENTATION('',(#16),#593);
#13=REPRESENTATION('',(#17),#593);
#14=PROPERTY_DEFINITION('pmi validation property','',#21);
#15=PROPERTY_DEFINITION('pmi validation property','',#21);
#16=VALUE_REPRESENTATION_ITEM('number of annotations',COUNT_MEASURE(0.));
#17=VALUE_REPRESENTATION_ITEM('number of views',COUNT_MEASURE(0.));
#18=SHAPE_REPRESENTATION_RELATIONSHIP('None',
'relationship between hm1522F0B8948bd4-None and hm1522F0B8948bd4-None',
#30,#19);
#19=ADVANCED_BREP_SHAPE_REPRESENTATION('hm1522F0B8948bd4-None',(#96,#97),
#593);
#20=SHAPE_DEFINITION_REPRESENTATION(#21,#30);
#21=PRODUCT_DEFINITION_SHAPE('','',#22);
#22=PRODUCT_DEFINITION(' ','',#24,#23);
#23=PRODUCT_DEFINITION_CONTEXT('part definition',#29,'design');
#24=PRODUCT_DEFINITION_FORMATION_WITH_SPECIFIED_SOURCE(' ',' ',#26,
 .NOT_KNOWN.);
#25=PRODUCT_RELATED_PRODUCT_CATEGORY('part','',(#26));
#26=PRODUCT('hm1522F0B8948bd4','hm1522F0B8948bd4',' ',(#27));
#27=PRODUCT_CONTEXT(' ',#29,'mechanical');
#28=APPLICATION_PROTOCOL_DEFINITION('international standard',
'automotive_design',2010,#29);
#29=APPLICATION_CONTEXT(
'core data for automotive mechanical design processes');
#30=SHAPE_REPRESENTATION('hm1522F0B8948bd4-None',(#358),#593);
#31=(
BOUNDED_CURVE()
B_SPLINE_CURVE(3,(#584,#585,#586,#587,#588,#589,#590),.UNSPECIFIED.,.F.,
 .F.)
B_SPLINE_CURVE_WITH_KNOTS((4,3,4),(0.,0.5,1.),.UNSPECIFIED.)
CURVE()
GEOMETRIC_REPRESENTATION_ITEM()
RATIONAL_B_SPLINE_CURVE((1.,0.804737318889796,0.804737318889796,1.,0.804737318889797,
0.804737318889797,1.))
REPRESENTATION_ITEM('')
);
#32=SURFACE_OF_REVOLUTION('',#58,#45);
#33=SURFACE_OF_REVOLUTION('',#59,#46);
#34=SURFACE_OF_REVOLUTION('',#60,#47);
#35=SURFACE_OF_REVOLUTION('',#348,#48);
#36=SURFACE_OF_REVOLUTION('',#61,#49);
#37=SURFACE_OF_REVOLUTION('',#351,#50);
#38=SURFACE_OF_REVOLUTION('',#62,#51);
#39=SURFACE_OF_REVOLUTION('',#63,#52);
#40=SURFACE_OF_REVOLUTION('',#64,#53);
#41=SURFACE_OF_REVOLUTION('',#65,#54);
#42=SURFACE_OF_REVOLUTION('',#66,#55);
#43=SURFACE_OF_REVOLUTION('',#67,#56);
#44=SURFACE_OF_REVOLUTION('',#31,#57);
#45=AXIS1_PLACEMENT('',#539,#450);
#46=AXIS1_PLACEMENT('',#543,#454);
#47=AXIS1_PLACEMENT('',#547,#458);
#48=AXIS1_PLACEMENT('',#551,#463);
#49=AXIS1_PLACEMENT('',#555,#467);
#50=AXIS1_PLACEMENT('',#559,#472);
#51=AXIS1_PLACEMENT('',#563,#476);
#52=AXIS1_PLACEMENT('',#567,#480);
#53=AXIS1_PLACEMENT('',#571,#484);
#54=AXIS1_PLACEMENT('',#575,#488);
#55=AXIS1_PLACEMENT('',#579,#492);
#56=AXIS1_PLACEMENT('',#583,#496);
#57=AXIS1_PLACEMENT('',#591,#497);
#58=LINE('',#538,#68);
#59=LINE('',#542,#69);
#60=LINE('',#546,#70);
#61=LINE('',#554,#71);
#62=LINE('',#562,#72);
#63=LINE('',#566,#73);
#64=LINE('',#570,#74);
#65=LINE('',#574,#75);
#66=LINE('',#578,#76);
#67=LINE('',#582,#77);
#68=VECTOR('',#449,1.98301779005845);
#69=VECTOR('',#453,4.37065950491364);
#70=VECTOR('',#457,0.0499999999999992);
#71=VECTOR('',#466,4.6);
#72=VECTOR('',#475,0.0500000000000005);
#73=VECTOR('',#479,2.5);
#74=VECTOR('',#483,2.66066358275702);
#75=VECTOR('',#487,2.);
#76=VECTOR('',#491,2.97459002048151);
#77=VECTOR('',#495,1.71633251150694);
#78=PRESENTATION_LAYER_ASSIGNMENT('14','Layer 14',(#96));
#79=PRESENTATION_LAYER_ASSIGNMENT('96','Layer 96',(#97));
#80=STYLED_ITEM('',(#82),#96);
#81=STYLED_ITEM('',(#83),#97);
#82=PRESENTATION_STYLE_ASSIGNMENT((#84));
#83=PRESENTATION_STYLE_ASSIGNMENT((#85));
#84=SURFACE_STYLE_USAGE(.BOTH.,#86);
#85=SURFACE_STYLE_USAGE(.BOTH.,#87);
#86=SURFACE_SIDE_STYLE('',(#88));
#87=SURFACE_SIDE_STYLE('',(#89));
#88=SURFACE_STYLE_FILL_AREA(#90);
#89=SURFACE_STYLE_FILL_AREA(#91);
#90=FILL_AREA_STYLE('',(#92));
#91=FILL_AREA_STYLE('',(#93));
#92=FILL_AREA_STYLE_COLOUR('',#94);
#93=FILL_AREA_STYLE_COLOUR('',#95);
#94=COLOUR_RGB('Silver Gray',0.6,0.6,0.6);
#95=COLOUR_RGB('Light Gray',0.8,0.8,0.8);
#96=MANIFOLD_SOLID_BREP('',#98);
#97=MANIFOLD_SOLID_BREP('',#99);
#98=CLOSED_SHELL('',(#110,#111,#112,#113,#114,#115,#116,#117,#118,#119,
#120,#121));
#99=CLOSED_SHELL('',(#122,#123,#124,#125,#126,#127,#128,#129,#130,#131,
#132,#133,#134));
#100=TOROIDAL_SURFACE('',#381,10.29475,0.8);
#101=FACE_OUTER_BOUND('',#206,.T.);
#102=SPHERICAL_SURFACE('',#378,9.3573342648017);
#103=VERTEX_LOOP('',#291);
#104=PLANE('',#369);
#105=PLANE('',#380);
#106=CYLINDRICAL_SURFACE('',#363,9.49475000000001);
#107=CYLINDRICAL_SURFACE('',#366,10.0625);
#108=CYLINDRICAL_SURFACE('',#374,1.575);
#109=CYLINDRICAL_SURFACE('',#379,9.35733426480171);
#110=ADVANCED_FACE('',(#139,#140),#135,.T.);
#111=ADVANCED_FACE('',(#141,#142),#106,.T.);
#112=ADVANCED_FACE('',(#143,#144),#107,.T.);
#113=ADVANCED_FACE('',(#145,#146),#104,.T.);
#114=ADVANCED_FACE('',(#147,#148),#136,.T.);
#115=ADVANCED_FACE('',(#149,#150),#137,.F.);
#116=ADVANCED_FACE('',(#151,#152),#108,.F.);
#117=ADVANCED_FACE('',(#153,#154),#138,.F.);
#118=ADVANCED_FACE('',(#155,#156),#102,.T.);
#119=ADVANCED_FACE('',(#157,#158),#109,.T.);
#120=ADVANCED_FACE('',(#101),#105,.T.);
#121=ADVANCED_FACE('',(#159,#160),#100,.F.);
#122=ADVANCED_FACE('',(#161,#162),#32,.T.);
#123=ADVANCED_FACE('',(#163,#164),#33,.T.);
#124=ADVANCED_FACE('',(#165,#166),#34,.T.);
#125=ADVANCED_FACE('',(#167,#168),#35,.T.);
#126=ADVANCED_FACE('',(#169,#170),#36,.T.);
#127=ADVANCED_FACE('',(#171,#172),#37,.T.);
#128=ADVANCED_FACE('',(#173,#174),#38,.T.);
#129=ADVANCED_FACE('',(#175,#176),#39,.T.);
#130=ADVANCED_FACE('',(#177,#178),#40,.T.);
#131=ADVANCED_FACE('',(#179,#180),#41,.T.);
#132=ADVANCED_FACE('',(#181,#182),#42,.T.);
#133=ADVANCED_FACE('',(#183,#184),#43,.T.);
#134=ADVANCED_FACE('',(#185,#186),#44,.T.);
#135=CONICAL_SURFACE('',#361,9.35733426480169,1.31199424950276);
#136=CONICAL_SURFACE('',#370,9.99475000000001,45.);
#137=CONICAL_SURFACE('',#372,1.575,59.);
#138=CONICAL_SURFACE('',#375,2.5,30.);
#139=FACE_BOUND('',#187,.T.);
#140=FACE_BOUND('',#188,.T.);
#141=FACE_BOUND('',#189,.T.);
#142=FACE_BOUND('',#190,.T.);
#143=FACE_BOUND('',#191,.T.);
#144=FACE_BOUND('',#192,.T.);
#145=FACE_BOUND('',#193,.T.);
#146=FACE_BOUND('',#194,.T.);
#147=FACE_BOUND('',#195,.T.);
#148=FACE_BOUND('',#196,.T.);
#149=FACE_BOUND('',#197,.T.);
#150=FACE_BOUND('',#103,.T.);
#151=FACE_BOUND('',#198,.T.);
#152=FACE_BOUND('',#199,.T.);
#153=FACE_BOUND('',#200,.T.);
#154=FACE_BOUND('',#201,.T.);
#155=FACE_BOUND('',#202,.T.);
#156=FACE_BOUND('',#203,.T.);
#157=FACE_BOUND('',#204,.T.);
#158=FACE_BOUND('',#205,.T.);
#159=FACE_BOUND('',#207,.T.);
#160=FACE_BOUND('',#208,.T.);
#161=FACE_BOUND('',#209,.T.);
#162=FACE_BOUND('',#210,.T.);
#163=FACE_BOUND('',#211,.T.);
#164=FACE_BOUND('',#212,.T.);
#165=FACE_BOUND('',#213,.T.);
#166=FACE_BOUND('',#214,.T.);
#167=FACE_BOUND('',#215,.T.);
#168=FACE_BOUND('',#216,.T.);
#169=FACE_BOUND('',#217,.T.);
#170=FACE_BOUND('',#218,.T.);
#171=FACE_BOUND('',#219,.T.);
#172=FACE_BOUND('',#220,.T.);
#173=FACE_BOUND('',#221,.T.);
#174=FACE_BOUND('',#222,.T.);
#175=FACE_BOUND('',#223,.T.);
#176=FACE_BOUND('',#224,.T.);
#177=FACE_BOUND('',#225,.T.);
#178=FACE_BOUND('',#226,.T.);
#179=FACE_BOUND('',#227,.T.);
#180=FACE_BOUND('',#228,.T.);
#181=FACE_BOUND('',#229,.T.);
#182=FACE_BOUND('',#230,.T.);
#183=FACE_BOUND('',#231,.T.);
#184=FACE_BOUND('',#232,.T.);
#185=FACE_BOUND('',#233,.T.);
#186=FACE_BOUND('',#234,.T.);
#187=EDGE_LOOP('',(#235));
#188=EDGE_LOOP('',(#236));
#189=EDGE_LOOP('',(#237));
#190=EDGE_LOOP('',(#238));
#191=EDGE_LOOP('',(#239));
#192=EDGE_LOOP('',(#240));
#193=EDGE_LOOP('',(#241));
#194=EDGE_LOOP('',(#242));
#195=EDGE_LOOP('',(#243));
#196=EDGE_LOOP('',(#244));
#197=EDGE_LOOP('',(#245));
#198=EDGE_LOOP('',(#246));
#199=EDGE_LOOP('',(#247));
#200=EDGE_LOOP('',(#248));
#201=EDGE_LOOP('',(#249));
#202=EDGE_LOOP('',(#250));
#203=EDGE_LOOP('',(#251));
#204=EDGE_LOOP('',(#252));
#205=EDGE_LOOP('',(#253));
#206=EDGE_LOOP('',(#254));
#207=EDGE_LOOP('',(#255));
#208=EDGE_LOOP('',(#256));
#209=EDGE_LOOP('',(#257));
#210=EDGE_LOOP('',(#258));
#211=EDGE_LOOP('',(#259));
#212=EDGE_LOOP('',(#260));
#213=EDGE_LOOP('',(#261));
#214=EDGE_LOOP('',(#262));
#215=EDGE_LOOP('',(#263));
#216=EDGE_LOOP('',(#264));
#217=EDGE_LOOP('',(#265));
#218=EDGE_LOOP('',(#266));
#219=EDGE_LOOP('',(#267));
#220=EDGE_LOOP('',(#268));
#221=EDGE_LOOP('',(#269));
#222=EDGE_LOOP('',(#270));
#223=EDGE_LOOP('',(#271));
#224=EDGE_LOOP('',(#272));
#225=EDGE_LOOP('',(#273));
#226=EDGE_LOOP('',(#274));
#227=EDGE_LOOP('',(#275));
#228=EDGE_LOOP('',(#276));
#229=EDGE_LOOP('',(#277));
#230=EDGE_LOOP('',(#278));
#231=EDGE_LOOP('',(#279));
#232=EDGE_LOOP('',(#280));
#233=EDGE_LOOP('',(#281));
#234=EDGE_LOOP('',(#282));
#235=ORIENTED_EDGE('',*,*,#308,.T.);
#236=ORIENTED_EDGE('',*,*,#309,.F.);
#237=ORIENTED_EDGE('',*,*,#310,.T.);
#238=ORIENTED_EDGE('',*,*,#308,.F.);
#239=ORIENTED_EDGE('',*,*,#311,.T.);
#240=ORIENTED_EDGE('',*,*,#312,.F.);
#241=ORIENTED_EDGE('',*,*,#313,.T.);
#242=ORIENTED_EDGE('',*,*,#314,.T.);
#243=ORIENTED_EDGE('',*,*,#314,.F.);
#244=ORIENTED_EDGE('',*,*,#311,.F.);
#245=ORIENTED_EDGE('',*,*,#315,.T.);
#246=ORIENTED_EDGE('',*,*,#315,.F.);
#247=ORIENTED_EDGE('',*,*,#316,.T.);
#248=ORIENTED_EDGE('',*,*,#316,.F.);
#249=ORIENTED_EDGE('',*,*,#313,.F.);
#250=ORIENTED_EDGE('',*,*,#317,.F.);
#251=ORIENTED_EDGE('',*,*,#318,.T.);
#252=ORIENTED_EDGE('',*,*,#309,.T.);
#253=ORIENTED_EDGE('',*,*,#317,.T.);
#254=ORIENTED_EDGE('',*,*,#318,.F.);
#255=ORIENTED_EDGE('',*,*,#312,.T.);
#256=ORIENTED_EDGE('',*,*,#310,.F.);
#257=ORIENTED_EDGE('',*,*,#319,.F.);
#258=ORIENTED_EDGE('',*,*,#320,.T.);
#259=ORIENTED_EDGE('',*,*,#321,.F.);
#260=ORIENTED_EDGE('',*,*,#319,.T.);
#261=ORIENTED_EDGE('',*,*,#322,.F.);
#262=ORIENTED_EDGE('',*,*,#321,.T.);
#263=ORIENTED_EDGE('',*,*,#323,.F.);
#264=ORIENTED_EDGE('',*,*,#322,.T.);
#265=ORIENTED_EDGE('',*,*,#324,.F.);
#266=ORIENTED_EDGE('',*,*,#323,.T.);
#267=ORIENTED_EDGE('',*,*,#325,.F.);
#268=ORIENTED_EDGE('',*,*,#324,.T.);
#269=ORIENTED_EDGE('',*,*,#326,.F.);
#270=ORIENTED_EDGE('',*,*,#325,.T.);
#271=ORIENTED_EDGE('',*,*,#327,.F.);
#272=ORIENTED_EDGE('',*,*,#326,.T.);
#273=ORIENTED_EDGE('',*,*,#328,.F.);
#274=ORIENTED_EDGE('',*,*,#327,.T.);
#275=ORIENTED_EDGE('',*,*,#329,.F.);
#276=ORIENTED_EDGE('',*,*,#328,.T.);
#277=ORIENTED_EDGE('',*,*,#330,.F.);
#278=ORIENTED_EDGE('',*,*,#329,.T.);
#279=ORIENTED_EDGE('',*,*,#331,.F.);
#280=ORIENTED_EDGE('',*,*,#330,.T.);
#281=ORIENTED_EDGE('',*,*,#320,.F.);
#282=ORIENTED_EDGE('',*,*,#331,.T.);
#283=VERTEX_POINT('',#500);
#284=VERTEX_POINT('',#502);
#285=VERTEX_POINT('',#505);
#286=VERTEX_POINT('',#508);
#287=VERTEX_POINT('',#510);
#288=VERTEX_POINT('',#513);
#289=VERTEX_POINT('',#515);
#290=VERTEX_POINT('',#519);
#291=VERTEX_POINT('',#520);
#292=VERTEX_POINT('',#523);
#293=VERTEX_POINT('',#527);
#294=VERTEX_POINT('',#529);
#295=VERTEX_POINT('',#535);
#296=VERTEX_POINT('',#537);
#297=VERTEX_POINT('',#541);
#298=VERTEX_POINT('',#545);
#299=VERTEX_POINT('',#549);
#300=VERTEX_POINT('',#553);
#301=VERTEX_POINT('',#557);
#302=VERTEX_POINT('',#561);
#303=VERTEX_POINT('',#565);
#304=VERTEX_POINT('',#569);
#305=VERTEX_POINT('',#573);
#306=VERTEX_POINT('',#577);
#307=VERTEX_POINT('',#581);
#308=EDGE_CURVE('',#283,#283,#332,.T.);
#309=EDGE_CURVE('',#284,#284,#333,.T.);
#310=EDGE_CURVE('',#285,#285,#334,.T.);
#311=EDGE_CURVE('',#286,#286,#335,.T.);
#312=EDGE_CURVE('',#287,#287,#336,.T.);
#313=EDGE_CURVE('',#288,#288,#337,.T.);
#314=EDGE_CURVE('',#289,#289,#338,.T.);
#315=EDGE_CURVE('',#290,#290,#339,.T.);
#316=EDGE_CURVE('',#292,#292,#340,.T.);
#317=EDGE_CURVE('',#293,#293,#341,.T.);
#318=EDGE_CURVE('',#294,#294,#342,.T.);
#319=EDGE_CURVE('',#295,#295,#343,.T.);
#320=EDGE_CURVE('',#296,#296,#344,.T.);
#321=EDGE_CURVE('',#297,#297,#345,.T.);
#322=EDGE_CURVE('',#298,#298,#346,.T.);
#323=EDGE_CURVE('',#299,#299,#347,.T.);
#324=EDGE_CURVE('',#300,#300,#349,.T.);
#325=EDGE_CURVE('',#301,#301,#350,.T.);
#326=EDGE_CURVE('',#302,#302,#352,.T.);
#327=EDGE_CURVE('',#303,#303,#353,.T.);
#328=EDGE_CURVE('',#304,#304,#354,.T.);
#329=EDGE_CURVE('',#305,#305,#355,.T.);
#330=EDGE_CURVE('',#306,#306,#356,.T.);
#331=EDGE_CURVE('',#307,#307,#357,.T.);
#332=CIRCLE('',#359,9.49475000000001);
#333=CIRCLE('',#360,9.35733426480169);
#334=CIRCLE('',#362,9.49475000000001);
#335=CIRCLE('',#364,10.0625);
#336=CIRCLE('',#365,10.0625);
#337=CIRCLE('',#367,2.5);
#338=CIRCLE('',#368,8.99475000000001);
#339=CIRCLE('',#371,1.575);
#340=CIRCLE('',#373,1.575);
#341=CIRCLE('',#376,9.35733426480171);
#342=CIRCLE('',#377,2.56119201608002);
#343=CIRCLE('',#382,0.450887023491356);
#344=CIRCLE('',#383,0.050430520732932);
#345=CIRCLE('',#384,1.25577060659905);
#346=CIRCLE('',#385,1.29785084094781);
#347=CIRCLE('',#386,1.54188065787707);
#348=CIRCLE('',#387,0.2);
#349=CIRCLE('',#388,3.22623248320943);
#350=CIRCLE('',#389,3.1224808745078);
#351=CIRCLE('',#390,0.2);
#352=CIRCLE('',#391,3.07837805264517);
#353=CIRCLE('',#392,3.99481007531399);
#354=CIRCLE('',#393,6.40226058340299);
#355=CIRCLE('',#394,7.44297411632211);
#356=CIRCLE('',#395,9.95301818833992);
#357=CIRCLE('',#396,10.0276581125493);
#358=AXIS2_PLACEMENT_3D('',#498,#397,#398);
#359=AXIS2_PLACEMENT_3D('',#499,#399,#400);
#360=AXIS2_PLACEMENT_3D('',#501,#401,#402);
#361=AXIS2_PLACEMENT_3D('',#503,#403,#404);
#362=AXIS2_PLACEMENT_3D('',#504,#405,#406);
#363=AXIS2_PLACEMENT_3D('',#506,#407,#408);
#364=AXIS2_PLACEMENT_3D('',#507,#409,#410);
#365=AXIS2_PLACEMENT_3D('',#509,#411,#412);
#366=AXIS2_PLACEMENT_3D('',#511,#413,#414);
#367=AXIS2_PLACEMENT_3D('',#512,#415,#416);
#368=AXIS2_PLACEMENT_3D('',#514,#417,#418);
#369=AXIS2_PLACEMENT_3D('',#516,#419,#420);
#370=AXIS2_PLACEMENT_3D('',#517,#421,#422);
#371=AXIS2_PLACEMENT_3D('',#518,#423,#424);
#372=AXIS2_PLACEMENT_3D('',#521,#425,#426);
#373=AXIS2_PLACEMENT_3D('',#522,#427,#428);
#374=AXIS2_PLACEMENT_3D('',#524,#429,#430);
#375=AXIS2_PLACEMENT_3D('',#525,#431,#432);
#376=AXIS2_PLACEMENT_3D('',#526,#433,#434);
#377=AXIS2_PLACEMENT_3D('',#528,#435,#436);
#378=AXIS2_PLACEMENT_3D('',#530,#437,#438);
#379=AXIS2_PLACEMENT_3D('',#531,#439,#440);
#380=AXIS2_PLACEMENT_3D('',#532,#441,#442);
#381=AXIS2_PLACEMENT_3D('',#533,#443,#444);
#382=AXIS2_PLACEMENT_3D('',#534,#445,#446);
#383=AXIS2_PLACEMENT_3D('',#536,#447,#448);
#384=AXIS2_PLACEMENT_3D('',#540,#451,#452);
#385=AXIS2_PLACEMENT_3D('',#544,#455,#456);
#386=AXIS2_PLACEMENT_3D('',#548,#459,#460);
#387=AXIS2_PLACEMENT_3D('',#550,#461,#462);
#388=AXIS2_PLACEMENT_3D('',#552,#464,#465);
#389=AXIS2_PLACEMENT_3D('',#556,#468,#469);
#390=AXIS2_PLACEMENT_3D('',#558,#470,#471);
#391=AXIS2_PLACEMENT_3D('',#560,#473,#474);
#392=AXIS2_PLACEMENT_3D('',#564,#477,#478);
#393=AXIS2_PLACEMENT_3D('',#568,#481,#482);
#394=AXIS2_PLACEMENT_3D('',#572,#485,#486);
#395=AXIS2_PLACEMENT_3D('',#576,#489,#490);
#396=AXIS2_PLACEMENT_3D('',#580,#493,#494);
#397=DIRECTION('',(0.,0.,1.));
#398=DIRECTION('',(1.,0.,0.));
#399=DIRECTION('',(1.6828032739025E-17,2.22908045556108E-17,-1.));
#400=DIRECTION('',(1.39453575582951E-32,-1.,0.));
#401=DIRECTION('',(1.6828032739025E-17,2.22908045556108E-17,-1.));
#402=DIRECTION('',(1.41229460917413E-32,-1.,-2.22908045556108E-17));
#403=DIRECTION('',(-1.6828032739025E-17,-2.22908045556108E-17,1.));
#404=DIRECTION('',(2.38801304844321E-32,1.,0.));
#405=DIRECTION('',(1.6828032739025E-17,2.22908045556108E-17,-1.));
#406=DIRECTION('',(-1.52131173363219E-32,1.,0.));
#407=DIRECTION('',(1.6828032739025E-17,2.22908045556108E-17,-1.));
#408=DIRECTION('',(1.01420782242146E-32,-1.,0.));
#409=DIRECTION('',(1.6828032739025E-17,2.22908045556108E-17,-1.));
#410=DIRECTION('',(0.,-1.,0.));
#411=DIRECTION('',(1.6828032739025E-17,2.22908045556108E-17,-1.));
#412=DIRECTION('',(1.43547573494701E-32,-1.,0.));
#413=DIRECTION('',(1.6828032739025E-17,2.22908045556108E-17,-1.));
#414=DIRECTION('',(9.56983823298005E-33,-1.,0.));
#415=DIRECTION('',(1.6828032739025E-17,2.22908045556108E-17,-1.));
#416=DIRECTION('',(0.,-1.,0.));
#417=DIRECTION('',(-1.6828032739025E-17,-2.22908045556108E-17,1.));
#418=DIRECTION('',(0.,1.,0.));
#419=DIRECTION('',(-1.6828032739025E-17,-2.22908045556108E-17,1.));
#420=DIRECTION('',(0.,1.,2.77555756156289E-17));
#421=DIRECTION('',(1.6828032739025E-17,2.22908045556108E-17,-1.));
#422=DIRECTION('',(1.601771844146E-32,-1.,2.74809107825847E-17));
#423=DIRECTION('',(-1.6828032739025E-17,-2.22908045556108E-17,1.));
#424=DIRECTION('',(0.,-1.,0.));
#425=DIRECTION('',(-1.6828032739025E-17,-2.22908045556108E-17,1.));
#426=DIRECTION('',(-1.54920261812873E-32,1.,1.66614646775544E-17));
#427=DIRECTION('',(-1.6828032739025E-17,-2.22908045556108E-17,1.));
#428=DIRECTION('',(0.,-1.,0.));
#429=DIRECTION('',(1.6828032739025E-17,2.22908045556108E-17,-1.));
#430=DIRECTION('',(0.,-1.,0.));
#431=DIRECTION('',(-1.6828032739025E-17,-2.22908045556108E-17,1.));
#432=DIRECTION('',(-1.46142757976932E-32,1.,-1.43600393534794E-16));
#433=DIRECTION('',(-1.6828032739025E-17,-2.22908045556108E-17,1.));
#434=DIRECTION('',(-1.02910181996584E-32,1.,0.));
#435=DIRECTION('',(-1.6828032739025E-17,-2.22908045556108E-17,1.));
#436=DIRECTION('',(0.,-1.,0.));
#437=DIRECTION('',(-7.80603726963927E-17,-2.22908045556108E-17,1.));
#438=DIRECTION('',(-1.,-1.02910181996584E-32,0.));
#439=DIRECTION('',(-1.6828032739025E-17,-2.22908045556108E-17,1.));
#440=DIRECTION('',(-1.02910181996584E-32,1.,0.));
#441=DIRECTION('',(1.6828032739025E-17,2.22908045556108E-17,-1.));
#442=DIRECTION('',(1.23259516440783E-32,-1.,-2.08166817117217E-17));
#443=DIRECTION('',(-1.6828032739025E-17,-2.22908045556108E-17,1.));
#444=DIRECTION('',(-1.51890642090974E-32,1.,0.));
#445=DIRECTION('',(0.,0.,-1.));
#446=DIRECTION('',(-1.,0.,0.));
#447=DIRECTION('',(0.,0.,-1.));
#448=DIRECTION('',(-1.,0.,0.));
#449=DIRECTION('',(-0.237668939172691,-0.0846584011007345,0.967649952449539));
#450=DIRECTION('',(0.,0.,-1.));
#451=DIRECTION('',(0.,0.,-1.));
#452=DIRECTION('',(-1.,0.,0.));
#453=DIRECTION('',(0.358384243542992,-0.0813663503405654,0.930021640077463));
#454=DIRECTION('',(0.,0.,-1.));
#455=DIRECTION('',(0.,0.,-1.));
#456=DIRECTION('',(-1.,0.,0.));
#457=DIRECTION('',(0.933574171654359,0.031235244935045,-0.357020483297143));
#458=DIRECTION('',(0.,0.,-1.));
#459=DIRECTION('',(0.,0.,-1.));
#460=DIRECTION('',(-1.,0.,0.));
#461=DIRECTION('',(4.5102810375397E-17,-0.996194698091746,-0.0871557427476584));
#462=DIRECTION('',(0.358384243542992,-0.0813663503405654,0.930021640077463));
#463=DIRECTION('',(0.,0.,-1.));
#464=DIRECTION('',(0.,0.,-1.));
#465=DIRECTION('',(-1.,0.,0.));
#466=DIRECTION('',(0.358384243542992,-0.0813663503405654,0.930021640077463));
#467=DIRECTION('',(0.,0.,-1.));
#468=DIRECTION('',(0.,0.,-1.));
#469=DIRECTION('',(-1.,0.,0.));
#470=DIRECTION('',(4.5102810375397E-17,-0.996194698091746,-0.0871557427476584));
#471=DIRECTION('',(0.358384243542992,-0.0813663503405654,0.930021640077463));
#472=DIRECTION('',(0.,0.,-1.));
#473=DIRECTION('',(0.,0.,-1.));
#474=DIRECTION('',(-1.,0.,0.));
#475=DIRECTION('',(-0.93357417165436,-0.0312352449350469,0.35702048329714));
#476=DIRECTION('',(0.,0.,-1.));
#477=DIRECTION('',(0.,0.,-1.));
#478=DIRECTION('',(-1.,0.,0.));
#479=DIRECTION('',(0.358384243542991,-0.0813663503405652,0.930021640077463));
#480=DIRECTION('',(0.,0.,-1.));
#481=DIRECTION('',(0.,0.,-1.));
#482=DIRECTION('',(-1.,0.,0.));
#483=DIRECTION('',(0.933574171654357,0.0312352449350472,-0.357020483297149));
#484=DIRECTION('',(0.,0.,-1.));
#485=DIRECTION('',(0.,0.,-1.));
#486=DIRECTION('',(-1.,0.,0.));
#487=DIRECTION('',(0.515053035223247,-0.0747062692877452,0.853896565303098));
#488=DIRECTION('',(0.,0.,-1.));
#489=DIRECTION('',(0.,0.,-1.));
#490=DIRECTION('',(-1.,0.,0.));
#491=DIRECTION('',(0.857158311461379,0.044889829839318,-0.513093102925459));
#492=DIRECTION('',(0.,0.,-1.));
#493=DIRECTION('',(0.,0.,-1.));
#494=DIRECTION('',(-1.,0.,0.));
#495=DIRECTION('',(0.0523185268615872,0.0870363784291115,-0.99483035768767));
#496=DIRECTION('',(0.,0.,-1.));
#497=DIRECTION('',(0.,0.,-1.));
#498=CARTESIAN_POINT('',(0.,0.,0.));
#499=CARTESIAN_POINT('',(-1.00968196434151E-16,-1.33744827333667E-16,6.00000000000001));
#500=CARTESIAN_POINT('',(-1.00968196434151E-16,-9.49475000000001,6.00000000000001));
#501=CARTESIAN_POINT('',(-7.70371977754894E-31,-1.82963344716787E-30,0.));
#502=CARTESIAN_POINT('',(-6.38218850370696E-31,-9.35733426480169,-2.08582509258215E-16));
#503=CARTESIAN_POINT('',(-7.70371977754894E-31,-1.82963344716787E-30,0.));
#504=CARTESIAN_POINT('',(-1.55397702379038E-16,-2.05843420074236E-16,9.23445448371766));
#505=CARTESIAN_POINT('',(-1.55397702379038E-16,9.49475000000001,9.23445448371766));
#506=CARTESIAN_POINT('',(5.0484098217075E-16,6.68724136668322E-16,-30.));
#507=CARTESIAN_POINT('',(-2.67451710628691E-15,-3.54272772233348E-15,158.93225));
#508=CARTESIAN_POINT('',(-2.67451710628691E-15,-10.0625,158.93225));
#509=CARTESIAN_POINT('',(-1.68280327390251E-16,-2.2290804555611E-16,10.));
#510=CARTESIAN_POINT('',(-1.68280327390251E-16,-10.0625,10.));
#511=CARTESIAN_POINT('',(5.0484098217075E-16,6.68724136668322E-16,-30.));
#512=CARTESIAN_POINT('',(-2.692485238244E-15,-3.56652872889773E-15,160.));
#513=CARTESIAN_POINT('',(-2.692485238244E-15,-2.5,160.));
#514=CARTESIAN_POINT('',(-2.692485238244E-15,-3.56652872889773E-15,160.));
#515=CARTESIAN_POINT('',(-2.692485238244E-15,8.99475,160.));
#516=CARTESIAN_POINT('',(-9.99475000000001,-3.56652872889773E-15,160.));
#517=CARTESIAN_POINT('',(-2.67565720550498E-15,-3.54423792434212E-15,159.));
#518=CARTESIAN_POINT('',(-2.59989740211389E-15,-3.44388472223276E-15,154.498));
#519=CARTESIAN_POINT('',(-2.59989740211389E-15,-1.575,154.498));
#520=CARTESIAN_POINT('',(-2.58397210119836E-15,-3.42278969730011E-15,153.551644525032));
#521=CARTESIAN_POINT('',(-2.59989740211389E-15,-3.44388472223276E-15,154.498));
#522=CARTESIAN_POINT('',(-2.66552425612574E-15,-3.53081558331822E-15,158.397853002999));
#523=CARTESIAN_POINT('',(-2.66552425612574E-15,-1.575,158.397853002999));
#524=CARTESIAN_POINT('',(-2.59989740211389E-15,-3.44388472223276E-15,154.498));
#525=CARTESIAN_POINT('',(-2.692485238244E-15,-3.56652872889773E-15,160.));
#526=CARTESIAN_POINT('',(5.0484098217075E-16,6.68724136668322E-16,-30.));
#527=CARTESIAN_POINT('',(5.0484098217075E-16,9.35733426480171,-30.));
#528=CARTESIAN_POINT('',(6.56293276821975E-16,8.69341377668819E-16,-39.));
#529=CARTESIAN_POINT('',(6.56293276821975E-16,-2.56119201608001,-39.));
#530=CARTESIAN_POINT('',(5.0484098217075E-16,6.68724136668322E-16,-30.));
#531=CARTESIAN_POINT('',(5.0484098217075E-16,6.68724136668322E-16,-30.));
#532=CARTESIAN_POINT('',(-5.99618838677116E-14,3.11784299499356E-14,-39.));
#533=CARTESIAN_POINT('',(-1.55397702379038E-16,-2.05843420074236E-16,9.23445448371766));
#534=CARTESIAN_POINT('',(0.,0.,-38.1684787537825));
#535=CARTESIAN_POINT('',(-0.450887023491356,0.,-38.1684787537825));
#536=CARTESIAN_POINT('',(0.,0.,-40.0873458240392));
#537=CARTESIAN_POINT('',(-0.050430520732932,0.,-40.0873458240392));
#538=CARTESIAN_POINT('',(0.0498481773155526,0.00764176940975814,-40.0873458240392));
#539=CARTESIAN_POINT('',(0.,0.,0.));
#540=CARTESIAN_POINT('',(0.,0.,-34.1036708328026));
#541=CARTESIAN_POINT('',(-1.25577060659905,0.,-34.1036708328026));
#542=CARTESIAN_POINT('',(-0.421453557208215,-0.160237346050902,-38.1684787537825));
#543=CARTESIAN_POINT('',(0.,0.,0.));
#544=CARTESIAN_POINT('',(0.,0.,-34.1215218569674));
#545=CARTESIAN_POINT('',(-1.29785084094781,0.,-34.1215218569674));
#546=CARTESIAN_POINT('',(1.14492194324424,-0.515861958547027,-34.1036708328026));
#547=CARTESIAN_POINT('',(0.,0.,0.));
#548=CARTESIAN_POINT('',(0.,0.,-34.0069216256114));
#549=CARTESIAN_POINT('',(-1.54188065787707,0.,-34.0069216256114));
#550=CARTESIAN_POINT('',(1.26327750053558,-0.530573466368389,-33.935517528952));
#551=CARTESIAN_POINT('',(0.,0.,0.));
#552=CARTESIAN_POINT('',(0.,0.,-29.7288220812551));
#553=CARTESIAN_POINT('',(-3.22623248320943,0.,-29.7288220812551));
#554=CARTESIAN_POINT('',(1.44999233486643,-0.524326417381378,-34.0069216256114));
#555=CARTESIAN_POINT('',(0.,0.,0.));
#556=CARTESIAN_POINT('',(0.,0.,-29.4714136565801));
#557=CARTESIAN_POINT('',(-3.1224808745078,0.,-29.4714136565801));
#558=CARTESIAN_POINT('',(2.91184502083334,-0.904858677934989,-29.6574179845956));
#559=CARTESIAN_POINT('',(0.,0.,0.));
#560=CARTESIAN_POINT('',(0.,0.,-29.4535626324153));
#561=CARTESIAN_POINT('',(-3.07837805264517,0.,-29.4535626324153));
#562=CARTESIAN_POINT('',(2.98352186954192,-0.921131948003102,-29.4714136565801));
#563=CARTESIAN_POINT('',(0.,0.,0.));
#564=CARTESIAN_POINT('',(0.,0.,-27.1285085322216));
#565=CARTESIAN_POINT('',(-3.99481007531399,0.,-27.1285085322216));
#566=CARTESIAN_POINT('',(2.9368431609592,-0.922693710249854,-29.4535626324153));
#567=CARTESIAN_POINT('',(0.,0.,0.));
#568=CARTESIAN_POINT('',(0.,0.,-28.0784199304287));
#569=CARTESIAN_POINT('',(-6.40226058340299,0.,-28.0784199304287));
#570=CARTESIAN_POINT('',(3.83280376981668,-1.12610958610127,-27.1285085322216));
#571=CARTESIAN_POINT('',(0.,0.,0.));
#572=CARTESIAN_POINT('',(0.,0.,-26.3706267998225));
#573=CARTESIAN_POINT('',(-7.44297411632211,0.,-26.3706267998225));
#574=CARTESIAN_POINT('',(6.31673057013998,-1.04300310740409,-28.0784199304287));
#575=CARTESIAN_POINT('',(0.,0.,0.));
#576=CARTESIAN_POINT('',(0.,0.,-27.8968684233624));
#577=CARTESIAN_POINT('',(-9.95301818833992,0.,-27.8968684233624));
#578=CARTESIAN_POINT('',(7.34683664058647,-1.19241564597958,-26.3706267998225));
#579=CARTESIAN_POINT('',(0.,0.,0.));
#580=CARTESIAN_POINT('',(0.,0.,-29.6043281096958));
#581=CARTESIAN_POINT('',(-10.0276581125493,0.,-29.6043281096958));
#582=CARTESIAN_POINT('',(9.89653119983227,-1.05888680611843,-27.8968684233624));
#583=CARTESIAN_POINT('',(0.,0.,0.));
#584=CARTESIAN_POINT('',(-1.34035022969113E-15,-1.73546226693022,-20.1635755195189));
#585=CARTESIAN_POINT('',(5.85787492338644,-1.73546342628475,-20.163562268036));
#586=CARTESIAN_POINT('',(10.0000227080667,-1.37445227932783,-24.2899385596335));
#587=CARTESIAN_POINT('',(10.0000227080667,-0.863904839455882,-30.1255225004107));
#588=CARTESIAN_POINT('',(10.0000227080667,-0.353357399583939,-35.9611064411879));
#589=CARTESIAN_POINT('',(5.85787492338643,0.00765374737298487,-40.0874827327854));
#590=CARTESIAN_POINT('',(-6.5064041749951E-15,0.0076525880184534,-40.0874694813024));
#591=CARTESIAN_POINT('',(0.,0.,0.));
#592=MECHANICAL_DESIGN_GEOMETRIC_PRESENTATION_REPRESENTATION('',(#80,#81),
#593);
#593=(
GEOMETRIC_REPRESENTATION_CONTEXT(3)
GLOBAL_UNCERTAINTY_ASSIGNED_CONTEXT((#594))
GLOBAL_UNIT_ASSIGNED_CONTEXT((#600,#596,#595))
REPRESENTATION_CONTEXT('20K3R050A20-CXP20_115009377ndi000_00-SIM',
'TOP_LEVEL_ASSEMBLY_PART')
);
#594=UNCERTAINTY_MEASURE_WITH_UNIT(LENGTH_MEASURE(2.E-5),#600,
'DISTANCE_ACCURACY_VALUE','Maximum Tolerance applied to model');
#595=(
NAMED_UNIT(*)
SI_UNIT($,.STERADIAN.)
SOLID_ANGLE_UNIT()
);
#596=(
CONVERSION_BASED_UNIT('DEGREE',#598)
NAMED_UNIT(#597)
PLANE_ANGLE_UNIT()
);
#597=DIMENSIONAL_EXPONENTS(0.,0.,0.,0.,0.,0.,0.);
#598=PLANE_ANGLE_MEASURE_WITH_UNIT(PLANE_ANGLE_MEASURE(0.0174532925),#599);
#599=(
NAMED_UNIT(*)
PLANE_ANGLE_UNIT()
SI_UNIT($,.RADIAN.)
);
#600=(
LENGTH_UNIT()
NAMED_UNIT(*)
SI_UNIT(.MILLI.,.METRE.)
);
ENDSEC;
END-ISO-10303-21;
