ISO-10303-21;
HEADER;
/* Generated by software containing ST-Developer
 * from STEP Tools, Inc. (www.steptools.com) 
 */
/* OPTION: using custom schema-name function */

FILE_DESCRIPTION(
/* description */ (''),
/* implementation_level */ '2;1');

FILE_NAME(
/* name */ '20K3R040M10_CXP20_SIM.stp',
/* time_stamp */ '2019-02-12T09:51:13+01:00',
/* author */ (''),
/* organization */ (''),
/* preprocessor_version */ 'ST-DEVELOPER v15',
/* originating_system */ 'SIEMENS PLM Software NX 8.5',
/* authorisation */ '');

FILE_SCHEMA (('AUTOMOTIVE_DESIGN { 1 0 10303 214 3 1 1 1 }'));
ENDSEC;

DATA;
#10=PROPERTY_DEFINITION_REPRESENTATION(#14,#12);
#11=PROPERTY_DEFINITION_REPRESENTATION(#15,#13);
#12=REPRESENTATION('',(#16),#613);
#13=REPRESENTATION('',(#17),#613);
#14=PROPERTY_DEFINITION('pmi validation property','',#21);
#15=PROPERTY_DEFINITION('pmi validation property','',#21);
#16=VALUE_REPRESENTATION_ITEM('number of annotations',COUNT_MEASURE(0.));
#17=VALUE_REPRESENTATION_ITEM('number of views',COUNT_MEASURE(0.));
#18=SHAPE_REPRESENTATION_RELATIONSHIP('None',
'relationship between hm151F5C2F24sqv0-None and hm151F5C2F24sqv0-None',
#30,#19);
#19=ADVANCED_BREP_SHAPE_REPRESENTATION('hm151F5C2F24sqv0-None',(#61,#62,
#357),#613);
#20=SHAPE_DEFINITION_REPRESENTATION(#21,#30);
#21=PRODUCT_DEFINITION_SHAPE('','',#22);
#22=PRODUCT_DEFINITION(' ','',#24,#23);
#23=PRODUCT_DEFINITION_CONTEXT('part definition',#29,'design');
#24=PRODUCT_DEFINITION_FORMATION_WITH_SPECIFIED_SOURCE(' ',' ',#26,
 .NOT_KNOWN.);
#25=PRODUCT_RELATED_PRODUCT_CATEGORY('part','',(#26));
#26=PRODUCT('hm151F5C2F24sqv0','hm151F5C2F24sqv0',' ',(#27));
#27=PRODUCT_CONTEXT(' ',#29,'mechanical');
#28=APPLICATION_PROTOCOL_DEFINITION('international standard',
'automotive_design',2010,#29);
#29=APPLICATION_CONTEXT(
'core data for automotive mechanical design processes');
#30=SHAPE_REPRESENTATION('hm151F5C2F24sqv0-None',(#356),#613);
#31=SPHERICAL_SURFACE('',#408,9.3573342648017);
#32=VERTEX_LOOP('',#286);
#33=TOROIDAL_SURFACE('',#373,5.45,0.4);
#34=TOROIDAL_SURFACE('',#385,4.45,0.6);
#35=TOROIDAL_SURFACE('',#389,4.45,0.6);
#36=CONICAL_SURFACE('',#367,8.4,45.);
#37=CONICAL_SURFACE('',#371,5.50566924038403,82.);
#38=CONICAL_SURFACE('',#377,5.25,15.0000000000001);
#39=CONICAL_SURFACE('',#381,5.0356406460551,15.);
#40=CONICAL_SURFACE('',#391,5.,29.9999999999999);
#41=CONICAL_SURFACE('',#395,3.0125,30.);
#42=CONICAL_SURFACE('',#399,1.,59.);
#43=CONICAL_SURFACE('',#402,2.125,30.);
#44=CYLINDRICAL_SURFACE('',#365,8.9);
#45=CYLINDRICAL_SURFACE('',#375,5.05);
#46=CYLINDRICAL_SURFACE('',#379,5.3375);
#47=CYLINDRICAL_SURFACE('',#387,3.85);
#48=CYLINDRICAL_SURFACE('',#393,5.);
#49=CYLINDRICAL_SURFACE('',#401,1.);
#50=CYLINDRICAL_SURFACE('',#409,9.35733426480171);
#51=SURFACE_STYLE_USAGE(.BOTH.,#53);
#52=SURFACE_STYLE_USAGE(.BOTH.,#54);
#53=SURFACE_SIDE_STYLE('',(#55));
#54=SURFACE_SIDE_STYLE('',(#56));
#55=SURFACE_STYLE_FILL_AREA(#57);
#56=SURFACE_STYLE_FILL_AREA(#58);
#57=FILL_AREA_STYLE('',(#59));
#58=FILL_AREA_STYLE('',(#60));
#59=FILL_AREA_STYLE_COLOUR('',#353);
#60=FILL_AREA_STYLE_COLOUR('',#354);
#61=MANIFOLD_SOLID_BREP('',#63);
#62=MANIFOLD_SOLID_BREP('',#64);
#63=CLOSED_SHELL('',(#122,#123,#124,#125));
#64=CLOSED_SHELL('',(#126,#127,#128,#129,#130,#131,#132,#133,#134,#135,
#136,#137,#138,#139,#140,#141,#142,#143,#144,#145,#146,#147,#148,#149));
#65=(
BOUNDED_CURVE()
B_SPLINE_CURVE(3,(#533,#534,#535,#536,#537,#538,#539),.UNSPECIFIED.,.F.,
 .F.)
B_SPLINE_CURVE_WITH_KNOTS((4,3,4),(0.,0.964541551000428,1.),
 .UNSPECIFIED.)
CURVE()
GEOMETRIC_REPRESENTATION_ITEM()
RATIONAL_B_SPLINE_CURVE((0.997793777910344,0.804740104932101,0.80547551229532,
1.,0.992848896328738,0.985959687465965,0.979332373411683))
REPRESENTATION_ITEM('')
);
#66=SURFACE_OF_REVOLUTION('',#70,#68);
#67=SURFACE_OF_REVOLUTION('',#65,#69);
#68=AXIS1_PLACEMENT('',#532,#425);
#69=AXIS1_PLACEMENT('',#540,#426);
#70=LINE('',#531,#71);
#71=VECTOR('',#424,1.77559668738437);
#72=FACE_BOUND('',#162,.T.);
#73=FACE_BOUND('',#163,.T.);
#74=FACE_BOUND('',#164,.T.);
#75=FACE_BOUND('',#165,.T.);
#76=FACE_BOUND('',#166,.T.);
#77=FACE_BOUND('',#167,.T.);
#78=FACE_BOUND('',#168,.T.);
#79=FACE_BOUND('',#169,.T.);
#80=FACE_BOUND('',#170,.T.);
#81=FACE_BOUND('',#171,.T.);
#82=FACE_BOUND('',#172,.T.);
#83=FACE_BOUND('',#173,.T.);
#84=FACE_BOUND('',#174,.T.);
#85=FACE_BOUND('',#175,.T.);
#86=FACE_BOUND('',#176,.T.);
#87=FACE_BOUND('',#177,.T.);
#88=FACE_BOUND('',#178,.T.);
#89=FACE_BOUND('',#179,.T.);
#90=FACE_BOUND('',#180,.T.);
#91=FACE_BOUND('',#181,.T.);
#92=FACE_BOUND('',#182,.T.);
#93=FACE_BOUND('',#183,.T.);
#94=FACE_BOUND('',#184,.T.);
#95=FACE_BOUND('',#185,.T.);
#96=FACE_BOUND('',#186,.T.);
#97=FACE_BOUND('',#187,.T.);
#98=FACE_BOUND('',#188,.T.);
#99=FACE_BOUND('',#189,.T.);
#100=FACE_BOUND('',#190,.T.);
#101=FACE_BOUND('',#191,.T.);
#102=FACE_BOUND('',#192,.T.);
#103=FACE_BOUND('',#193,.T.);
#104=FACE_BOUND('',#194,.T.);
#105=FACE_BOUND('',#195,.T.);
#106=FACE_BOUND('',#196,.T.);
#107=FACE_BOUND('',#197,.T.);
#108=FACE_BOUND('',#198,.T.);
#109=FACE_BOUND('',#199,.T.);
#110=FACE_BOUND('',#200,.T.);
#111=FACE_BOUND('',#32,.T.);
#112=FACE_BOUND('',#201,.T.);
#113=FACE_BOUND('',#202,.T.);
#114=FACE_BOUND('',#203,.T.);
#115=FACE_BOUND('',#204,.T.);
#116=FACE_BOUND('',#205,.T.);
#117=FACE_BOUND('',#206,.T.);
#118=FACE_BOUND('',#208,.T.);
#119=FACE_BOUND('',#209,.T.);
#120=FACE_BOUND('',#210,.T.);
#121=FACE_BOUND('',#211,.T.);
#122=ADVANCED_FACE('',(#157),#150,.F.);
#123=ADVANCED_FACE('',(#158),#151,.T.);
#124=ADVANCED_FACE('',(#72,#73),#66,.T.);
#125=ADVANCED_FACE('',(#74,#75),#67,.T.);
#126=ADVANCED_FACE('',(#76,#77),#44,.T.);
#127=ADVANCED_FACE('',(#78,#79),#36,.T.);
#128=ADVANCED_FACE('CU_SU1',(#80,#81),#152,.F.);
#129=ADVANCED_FACE('',(#82,#83),#37,.F.);
#130=ADVANCED_FACE('',(#84,#85),#33,.F.);
#131=ADVANCED_FACE('',(#86,#87),#45,.T.);
#132=ADVANCED_FACE('',(#88,#89),#38,.T.);
#133=ADVANCED_FACE('CU_SU2',(#90,#91),#46,.T.);
#134=ADVANCED_FACE('',(#92,#93),#39,.T.);
#135=ADVANCED_FACE('',(#94,#95),#153,.F.);
#136=ADVANCED_FACE('',(#96,#97),#34,.F.);
#137=ADVANCED_FACE('',(#98,#99),#47,.T.);
#138=ADVANCED_FACE('',(#100,#101),#35,.F.);
#139=ADVANCED_FACE('',(#102,#103),#40,.T.);
#140=ADVANCED_FACE('',(#104,#105),#48,.T.);
#141=ADVANCED_FACE('',(#106,#107),#41,.T.);
#142=ADVANCED_FACE('',(#108,#109),#154,.F.);
#143=ADVANCED_FACE('',(#110,#111),#42,.F.);
#144=ADVANCED_FACE('',(#112,#113),#49,.F.);
#145=ADVANCED_FACE('',(#114,#115),#43,.F.);
#146=ADVANCED_FACE('',(#116,#117),#155,.T.);
#147=ADVANCED_FACE('',(#159),#156,.T.);
#148=ADVANCED_FACE('',(#118,#119),#31,.T.);
#149=ADVANCED_FACE('',(#120,#121),#50,.T.);
#150=PLANE('',#359);
#151=PLANE('',#361);
#152=PLANE('',#369);
#153=PLANE('',#383);
#154=PLANE('',#397);
#155=PLANE('',#404);
#156=PLANE('',#406);
#157=FACE_OUTER_BOUND('',#160,.T.);
#158=FACE_OUTER_BOUND('',#161,.T.);
#159=FACE_OUTER_BOUND('',#207,.T.);
#160=EDGE_LOOP('',(#212));
#161=EDGE_LOOP('',(#213));
#162=EDGE_LOOP('',(#214));
#163=EDGE_LOOP('',(#215));
#164=EDGE_LOOP('',(#216));
#165=EDGE_LOOP('',(#217));
#166=EDGE_LOOP('',(#218));
#167=EDGE_LOOP('',(#219));
#168=EDGE_LOOP('',(#220));
#169=EDGE_LOOP('',(#221));
#170=EDGE_LOOP('',(#222));
#171=EDGE_LOOP('',(#223));
#172=EDGE_LOOP('',(#224));
#173=EDGE_LOOP('',(#225));
#174=EDGE_LOOP('',(#226));
#175=EDGE_LOOP('',(#227));
#176=EDGE_LOOP('',(#228));
#177=EDGE_LOOP('',(#229));
#178=EDGE_LOOP('',(#230));
#179=EDGE_LOOP('',(#231));
#180=EDGE_LOOP('',(#232));
#181=EDGE_LOOP('',(#233));
#182=EDGE_LOOP('',(#234));
#183=EDGE_LOOP('',(#235));
#184=EDGE_LOOP('',(#236));
#185=EDGE_LOOP('',(#237));
#186=EDGE_LOOP('',(#238));
#187=EDGE_LOOP('',(#239));
#188=EDGE_LOOP('',(#240));
#189=EDGE_LOOP('',(#241));
#190=EDGE_LOOP('',(#242));
#191=EDGE_LOOP('',(#243));
#192=EDGE_LOOP('',(#244));
#193=EDGE_LOOP('',(#245));
#194=EDGE_LOOP('',(#246));
#195=EDGE_LOOP('',(#247));
#196=EDGE_LOOP('',(#248));
#197=EDGE_LOOP('',(#249));
#198=EDGE_LOOP('',(#250));
#199=EDGE_LOOP('',(#251));
#200=EDGE_LOOP('',(#252));
#201=EDGE_LOOP('',(#253));
#202=EDGE_LOOP('',(#254));
#203=EDGE_LOOP('',(#255));
#204=EDGE_LOOP('',(#256));
#205=EDGE_LOOP('',(#257));
#206=EDGE_LOOP('',(#258));
#207=EDGE_LOOP('',(#259));
#208=EDGE_LOOP('',(#260));
#209=EDGE_LOOP('',(#261));
#210=EDGE_LOOP('',(#262));
#211=EDGE_LOOP('',(#263));
#212=ORIENTED_EDGE('',*,*,#291,.F.);
#213=ORIENTED_EDGE('',*,*,#292,.T.);
#214=ORIENTED_EDGE('',*,*,#292,.F.);
#215=ORIENTED_EDGE('',*,*,#293,.T.);
#216=ORIENTED_EDGE('',*,*,#293,.F.);
#217=ORIENTED_EDGE('',*,*,#291,.T.);
#218=ORIENTED_EDGE('',*,*,#294,.T.);
#219=ORIENTED_EDGE('',*,*,#295,.F.);
#220=ORIENTED_EDGE('',*,*,#294,.F.);
#221=ORIENTED_EDGE('',*,*,#296,.T.);
#222=ORIENTED_EDGE('',*,*,#296,.F.);
#223=ORIENTED_EDGE('',*,*,#297,.T.);
#224=ORIENTED_EDGE('',*,*,#297,.F.);
#225=ORIENTED_EDGE('',*,*,#298,.T.);
#226=ORIENTED_EDGE('',*,*,#298,.F.);
#227=ORIENTED_EDGE('',*,*,#299,.T.);
#228=ORIENTED_EDGE('',*,*,#299,.F.);
#229=ORIENTED_EDGE('',*,*,#300,.T.);
#230=ORIENTED_EDGE('',*,*,#300,.F.);
#231=ORIENTED_EDGE('',*,*,#301,.T.);
#232=ORIENTED_EDGE('',*,*,#301,.F.);
#233=ORIENTED_EDGE('',*,*,#302,.T.);
#234=ORIENTED_EDGE('',*,*,#302,.F.);
#235=ORIENTED_EDGE('',*,*,#303,.T.);
#236=ORIENTED_EDGE('',*,*,#303,.F.);
#237=ORIENTED_EDGE('',*,*,#304,.T.);
#238=ORIENTED_EDGE('',*,*,#304,.F.);
#239=ORIENTED_EDGE('',*,*,#305,.T.);
#240=ORIENTED_EDGE('',*,*,#305,.F.);
#241=ORIENTED_EDGE('',*,*,#306,.T.);
#242=ORIENTED_EDGE('',*,*,#306,.F.);
#243=ORIENTED_EDGE('',*,*,#307,.T.);
#244=ORIENTED_EDGE('',*,*,#307,.F.);
#245=ORIENTED_EDGE('',*,*,#308,.T.);
#246=ORIENTED_EDGE('',*,*,#308,.F.);
#247=ORIENTED_EDGE('',*,*,#309,.T.);
#248=ORIENTED_EDGE('',*,*,#309,.F.);
#249=ORIENTED_EDGE('',*,*,#310,.T.);
#250=ORIENTED_EDGE('',*,*,#311,.T.);
#251=ORIENTED_EDGE('',*,*,#310,.F.);
#252=ORIENTED_EDGE('',*,*,#312,.F.);
#253=ORIENTED_EDGE('',*,*,#312,.T.);
#254=ORIENTED_EDGE('',*,*,#313,.F.);
#255=ORIENTED_EDGE('',*,*,#313,.T.);
#256=ORIENTED_EDGE('',*,*,#311,.F.);
#257=ORIENTED_EDGE('',*,*,#295,.T.);
#258=ORIENTED_EDGE('',*,*,#314,.T.);
#259=ORIENTED_EDGE('',*,*,#315,.T.);
#260=ORIENTED_EDGE('',*,*,#316,.F.);
#261=ORIENTED_EDGE('',*,*,#315,.F.);
#262=ORIENTED_EDGE('',*,*,#316,.T.);
#263=ORIENTED_EDGE('',*,*,#314,.F.);
#264=VERTEX_POINT('',#524);
#265=VERTEX_POINT('',#527);
#266=VERTEX_POINT('',#530);
#267=VERTEX_POINT('',#542);
#268=VERTEX_POINT('',#544);
#269=VERTEX_POINT('',#547);
#270=VERTEX_POINT('',#550);
#271=VERTEX_POINT('',#553);
#272=VERTEX_POINT('',#556);
#273=VERTEX_POINT('',#559);
#274=VERTEX_POINT('',#562);
#275=VERTEX_POINT('',#565);
#276=VERTEX_POINT('',#568);
#277=VERTEX_POINT('',#571);
#278=VERTEX_POINT('',#574);
#279=VERTEX_POINT('',#577);
#280=VERTEX_POINT('',#580);
#281=VERTEX_POINT('',#583);
#282=VERTEX_POINT('',#586);
#283=VERTEX_POINT('',#589);
#284=VERTEX_POINT('',#592);
#285=VERTEX_POINT('',#595);
#286=VERTEX_POINT('',#596);
#287=VERTEX_POINT('',#599);
#288=VERTEX_POINT('',#603);
#289=VERTEX_POINT('',#606);
#290=VERTEX_POINT('',#609);
#291=EDGE_CURVE('',#264,#264,#317,.T.);
#292=EDGE_CURVE('',#265,#265,#318,.T.);
#293=EDGE_CURVE('',#266,#266,#319,.T.);
#294=EDGE_CURVE('',#267,#267,#320,.T.);
#295=EDGE_CURVE('',#268,#268,#321,.T.);
#296=EDGE_CURVE('',#269,#269,#322,.T.);
#297=EDGE_CURVE('',#270,#270,#323,.T.);
#298=EDGE_CURVE('',#271,#271,#324,.T.);
#299=EDGE_CURVE('',#272,#272,#325,.T.);
#300=EDGE_CURVE('',#273,#273,#326,.T.);
#301=EDGE_CURVE('',#274,#274,#327,.T.);
#302=EDGE_CURVE('',#275,#275,#328,.T.);
#303=EDGE_CURVE('',#276,#276,#329,.T.);
#304=EDGE_CURVE('',#277,#277,#330,.T.);
#305=EDGE_CURVE('',#278,#278,#331,.T.);
#306=EDGE_CURVE('',#279,#279,#332,.T.);
#307=EDGE_CURVE('',#280,#280,#333,.T.);
#308=EDGE_CURVE('',#281,#281,#334,.T.);
#309=EDGE_CURVE('',#282,#282,#335,.T.);
#310=EDGE_CURVE('',#283,#283,#336,.T.);
#311=EDGE_CURVE('',#284,#284,#337,.T.);
#312=EDGE_CURVE('',#285,#285,#338,.T.);
#313=EDGE_CURVE('',#287,#287,#339,.T.);
#314=EDGE_CURVE('',#288,#288,#340,.T.);
#315=EDGE_CURVE('',#289,#289,#341,.T.);
#316=EDGE_CURVE('',#290,#290,#342,.T.);
#317=CIRCLE('',#358,0.0530535648726322);
#318=CIRCLE('',#360,9.86320736755741);
#319=CIRCLE('',#362,9.94024387469884);
#320=CIRCLE('',#363,8.9);
#321=CIRCLE('',#364,8.90000000000001);
#322=CIRCLE('',#366,8.35);
#323=CIRCLE('',#368,6.54527618313501);
#324=CIRCLE('',#370,5.50566924038403);
#325=CIRCLE('',#372,5.05);
#326=CIRCLE('',#374,5.05);
#327=CIRCLE('',#376,5.3375);
#328=CIRCLE('',#378,5.3375);
#329=CIRCLE('',#380,5.0356406460551);
#330=CIRCLE('',#382,4.45);
#331=CIRCLE('',#384,3.85);
#332=CIRCLE('',#386,3.85);
#333=CIRCLE('',#388,3.93038475772934);
#334=CIRCLE('',#390,5.);
#335=CIRCLE('',#392,5.);
#336=CIRCLE('',#394,3.0125);
#337=CIRCLE('',#396,2.125);
#338=CIRCLE('',#398,1.);
#339=CIRCLE('',#400,1.);
#340=CIRCLE('',#403,9.35733426480171);
#341=CIRCLE('',#405,2.56119201608002);
#342=CIRCLE('',#407,9.35733426480171);
#343=PRESENTATION_LAYER_ASSIGNMENT('1','Layer 1',(#357,#61));
#344=PRESENTATION_LAYER_ASSIGNMENT('2','Layer 2',(#62));
#345=STYLED_ITEM('',(#348),#357);
#346=STYLED_ITEM('',(#349),#61);
#347=STYLED_ITEM('',(#350),#62);
#348=PRESENTATION_STYLE_ASSIGNMENT((#351));
#349=PRESENTATION_STYLE_ASSIGNMENT((#51));
#350=PRESENTATION_STYLE_ASSIGNMENT((#52));
#351=CURVE_STYLE('',#355,POSITIVE_LENGTH_MEASURE(0.13),#352);
#352=COLOUR_RGB('Pale Lemon',1.,0.980392156862745,0.749004348821241);
#353=COLOUR_RGB('Light Gray',0.8,0.8,0.8);
#354=COLOUR_RGB('Pale Sky',0.882337682154574,0.960769054703594,1.);
#355=DRAUGHTING_PRE_DEFINED_CURVE_FONT('continuous');
#356=AXIS2_PLACEMENT_3D('',#521,#410,#411);
#357=AXIS2_PLACEMENT_3D('',#522,#412,#413);
#358=AXIS2_PLACEMENT_3D('',#523,#414,#415);
#359=AXIS2_PLACEMENT_3D('',#525,#416,#417);
#360=AXIS2_PLACEMENT_3D('',#526,#418,#419);
#361=AXIS2_PLACEMENT_3D('',#528,#420,#421);
#362=AXIS2_PLACEMENT_3D('',#529,#422,#423);
#363=AXIS2_PLACEMENT_3D('',#541,#427,#428);
#364=AXIS2_PLACEMENT_3D('',#543,#429,#430);
#365=AXIS2_PLACEMENT_3D('',#545,#431,#432);
#366=AXIS2_PLACEMENT_3D('',#546,#433,#434);
#367=AXIS2_PLACEMENT_3D('',#548,#435,#436);
#368=AXIS2_PLACEMENT_3D('',#549,#437,#438);
#369=AXIS2_PLACEMENT_3D('',#551,#439,#440);
#370=AXIS2_PLACEMENT_3D('',#552,#441,#442);
#371=AXIS2_PLACEMENT_3D('',#554,#443,#444);
#372=AXIS2_PLACEMENT_3D('',#555,#445,#446);
#373=AXIS2_PLACEMENT_3D('',#557,#447,#448);
#374=AXIS2_PLACEMENT_3D('',#558,#449,#450);
#375=AXIS2_PLACEMENT_3D('',#560,#451,#452);
#376=AXIS2_PLACEMENT_3D('',#561,#453,#454);
#377=AXIS2_PLACEMENT_3D('',#563,#455,#456);
#378=AXIS2_PLACEMENT_3D('',#564,#457,#458);
#379=AXIS2_PLACEMENT_3D('',#566,#459,#460);
#380=AXIS2_PLACEMENT_3D('',#567,#461,#462);
#381=AXIS2_PLACEMENT_3D('',#569,#463,#464);
#382=AXIS2_PLACEMENT_3D('',#570,#465,#466);
#383=AXIS2_PLACEMENT_3D('',#572,#467,#468);
#384=AXIS2_PLACEMENT_3D('',#573,#469,#470);
#385=AXIS2_PLACEMENT_3D('',#575,#471,#472);
#386=AXIS2_PLACEMENT_3D('',#576,#473,#474);
#387=AXIS2_PLACEMENT_3D('',#578,#475,#476);
#388=AXIS2_PLACEMENT_3D('',#579,#477,#478);
#389=AXIS2_PLACEMENT_3D('',#581,#479,#480);
#390=AXIS2_PLACEMENT_3D('',#582,#481,#482);
#391=AXIS2_PLACEMENT_3D('',#584,#483,#484);
#392=AXIS2_PLACEMENT_3D('',#585,#485,#486);
#393=AXIS2_PLACEMENT_3D('',#587,#487,#488);
#394=AXIS2_PLACEMENT_3D('',#588,#489,#490);
#395=AXIS2_PLACEMENT_3D('',#590,#491,#492);
#396=AXIS2_PLACEMENT_3D('',#591,#493,#494);
#397=AXIS2_PLACEMENT_3D('',#593,#495,#496);
#398=AXIS2_PLACEMENT_3D('',#594,#497,#498);
#399=AXIS2_PLACEMENT_3D('',#597,#499,#500);
#400=AXIS2_PLACEMENT_3D('',#598,#501,#502);
#401=AXIS2_PLACEMENT_3D('',#600,#503,#504);
#402=AXIS2_PLACEMENT_3D('',#601,#505,#506);
#403=AXIS2_PLACEMENT_3D('',#602,#507,#508);
#404=AXIS2_PLACEMENT_3D('',#604,#509,#510);
#405=AXIS2_PLACEMENT_3D('',#605,#511,#512);
#406=AXIS2_PLACEMENT_3D('',#607,#513,#514);
#407=AXIS2_PLACEMENT_3D('',#608,#515,#516);
#408=AXIS2_PLACEMENT_3D('',#610,#517,#518);
#409=AXIS2_PLACEMENT_3D('',#611,#519,#520);
#410=DIRECTION('',(0.,0.,1.));
#411=DIRECTION('',(1.,0.,0.));
#412=DIRECTION('',(1.,0.,0.));
#413=DIRECTION('',(0.,0.,-1.));
#414=DIRECTION('',(1.,0.,0.));
#415=DIRECTION('',(0.,0.,-1.));
#416=DIRECTION('',(1.,0.,0.));
#417=DIRECTION('',(0.,0.,-1.));
#418=DIRECTION('',(1.,0.,0.));
#419=DIRECTION('',(0.,0.,-1.));
#420=DIRECTION('',(1.,0.,0.));
#421=DIRECTION('',(0.,0.,-1.));
#422=DIRECTION('',(1.,0.,0.));
#423=DIRECTION('',(0.,0.,-1.));
#424=DIRECTION('',(0.99483035768767,0.0523185268615837,0.0870363784291112));
#425=DIRECTION('',(1.,0.,0.));
#426=DIRECTION('',(1.,0.,0.));
#427=DIRECTION('',(-1.,0.,0.));
#428=DIRECTION('',(0.,0.,1.));
#429=DIRECTION('',(-1.,0.,0.));
#430=DIRECTION('',(0.,0.,1.));
#431=DIRECTION('',(-1.,0.,0.));
#432=DIRECTION('',(0.,0.,1.));
#433=DIRECTION('',(-1.,0.,0.));
#434=DIRECTION('',(0.,0.,1.));
#435=DIRECTION('',(-1.,0.,0.));
#436=DIRECTION('',(3.09649172625769E-017,0.,1.));
#437=DIRECTION('',(-1.,0.,0.));
#438=DIRECTION('',(0.,0.,1.));
#439=DIRECTION('',(-1.,0.,0.));
#440=DIRECTION('',(0.,0.,1.));
#441=DIRECTION('',(-1.,0.,0.));
#442=DIRECTION('',(0.,0.,1.));
#443=DIRECTION('',(1.,0.,0.));
#444=DIRECTION('',(-1.4129437193213E-017,0.,-1.));
#445=DIRECTION('',(-1.,0.,0.));
#446=DIRECTION('',(0.,0.,1.));
#447=DIRECTION('',(-1.,0.,0.));
#448=DIRECTION('',(0.,0.,1.));
#449=DIRECTION('',(-1.,0.,0.));
#450=DIRECTION('',(0.,0.,1.));
#451=DIRECTION('',(-1.,0.,0.));
#452=DIRECTION('',(0.,0.,1.));
#453=DIRECTION('',(-1.,0.,0.));
#454=DIRECTION('',(0.,0.,-1.));
#455=DIRECTION('',(1.,0.,0.));
#456=DIRECTION('',(1.01594647365681E-016,0.,-1.));
#457=DIRECTION('',(-1.,0.,0.));
#458=DIRECTION('',(0.,0.,1.));
#459=DIRECTION('',(-1.,0.,0.));
#460=DIRECTION('',(0.,0.,1.));
#461=DIRECTION('',(-1.,0.,0.));
#462=DIRECTION('',(0.,0.,1.));
#463=DIRECTION('',(-1.,0.,0.));
#464=DIRECTION('',(1.27093029779157E-016,0.,1.));
#465=DIRECTION('',(-1.,0.,0.));
#466=DIRECTION('',(0.,0.,1.));
#467=DIRECTION('',(-1.,0.,0.));
#468=DIRECTION('',(0.,0.,1.));
#469=DIRECTION('',(-1.,0.,0.));
#470=DIRECTION('',(0.,0.,1.));
#471=DIRECTION('',(-1.,0.,0.));
#472=DIRECTION('',(0.,0.,1.));
#473=DIRECTION('',(-1.,0.,0.));
#474=DIRECTION('',(0.,0.,1.));
#475=DIRECTION('',(-1.,0.,0.));
#476=DIRECTION('',(0.,0.,1.));
#477=DIRECTION('',(-1.,0.,0.));
#478=DIRECTION('',(0.,0.,1.));
#479=DIRECTION('',(-1.,0.,0.));
#480=DIRECTION('',(0.,0.,1.));
#481=DIRECTION('',(-1.,0.,0.));
#482=DIRECTION('',(0.,0.,1.));
#483=DIRECTION('',(1.,0.,0.));
#484=DIRECTION('',(9.53226162469281E-017,0.,-1.));
#485=DIRECTION('',(-1.,0.,0.));
#486=DIRECTION('',(0.,0.,1.));
#487=DIRECTION('',(-1.,0.,0.));
#488=DIRECTION('',(0.,0.,1.));
#489=DIRECTION('',(-1.,0.,0.));
#490=DIRECTION('',(0.,0.,1.));
#491=DIRECTION('',(-1.,0.,0.));
#492=DIRECTION('',(-2.39122640950803E-017,0.,1.));
#493=DIRECTION('',(-1.,0.,0.));
#494=DIRECTION('',(0.,0.,1.));
#495=DIRECTION('',(-1.,0.,0.));
#496=DIRECTION('',(0.,0.,1.));
#497=DIRECTION('',(-1.,0.,0.));
#498=DIRECTION('',(0.,0.,1.));
#499=DIRECTION('',(1.,0.,0.));
#500=DIRECTION('',(5.41684574312235E-017,0.,-1.));
#501=DIRECTION('',(-1.,0.,0.));
#502=DIRECTION('',(0.,0.,1.));
#503=DIRECTION('',(-1.,0.,0.));
#504=DIRECTION('',(0.,0.,1.));
#505=DIRECTION('',(1.,0.,0.));
#506=DIRECTION('',(1.79616653363249E-016,0.,-1.));
#507=DIRECTION('',(1.,0.,0.));
#508=DIRECTION('',(0.,0.,-1.));
#509=DIRECTION('',(1.,0.,0.));
#510=DIRECTION('',(0.,0.,-1.));
#511=DIRECTION('',(-1.,0.,0.));
#512=DIRECTION('',(0.,0.,1.));
#513=DIRECTION('',(-1.,0.,0.));
#514=DIRECTION('',(0.,0.,1.));
#515=DIRECTION('',(1.,0.,0.));
#516=DIRECTION('',(0.,0.,-1.));
#517=DIRECTION('',(1.,6.12323399573677E-017,0.));
#518=DIRECTION('',(0.,1.,0.));
#519=DIRECTION('',(1.,0.,0.));
#520=DIRECTION('',(0.,0.,-1.));
#521=CARTESIAN_POINT('',(0.,0.,0.));
#522=CARTESIAN_POINT('',(30.,0.,0.));
#523=CARTESIAN_POINT('',(-9.99979975046153,0.,0.));
#524=CARTESIAN_POINT('',(-9.99979975046153,0.,-0.0530535648726322));
#525=CARTESIAN_POINT('',(-9.99979975046153,0.,0.));
#526=CARTESIAN_POINT('',(2.15751002047024,0.,0.));
#527=CARTESIAN_POINT('',(2.15751002047024,0.,-9.86320736755741));
#528=CARTESIAN_POINT('',(2.15751002047024,0.,0.));
#529=CARTESIAN_POINT('',(0.391092532850607,0.,0.));
#530=CARTESIAN_POINT('',(0.391092532850607,0.,-9.94024387469884));
#531=CARTESIAN_POINT('',(0.391092532850601,-9.89858476705903,0.909102798276848));
#532=CARTESIAN_POINT('',(49.5,0.,0.));
#533=CARTESIAN_POINT('',(-9.99979975046153,-0.05305356197994,1.75195680319192E-005));
#534=CARTESIAN_POINT('',(-9.96897025175856,-5.83740548635275,0.00271475120672921));
#535=CARTESIAN_POINT('',(-5.88268453911523,-9.91215995407958,0.360218426990972));
#536=CARTESIAN_POINT('',(-0.125522500411191,-9.91215995407958,0.863904839459373));
#537=CARTESIAN_POINT('',(0.0461799255814269,-9.91215995407958,0.878926855233626));
#538=CARTESIAN_POINT('',(0.21842716677733,-9.90766530779963,0.893996536161883));
#539=CARTESIAN_POINT('',(0.391092532850614,-9.89858476705903,0.909102798276849));
#540=CARTESIAN_POINT('',(49.5,0.,0.));
#541=CARTESIAN_POINT('',(29.5,0.,0.));
#542=CARTESIAN_POINT('',(29.5,0.,8.9));
#543=CARTESIAN_POINT('',(20.,0.,0.));
#544=CARTESIAN_POINT('',(20.,0.,8.90000000000001));
#545=CARTESIAN_POINT('',(53.8875,0.,0.));
#546=CARTESIAN_POINT('',(30.05,0.,0.));
#547=CARTESIAN_POINT('',(30.05,0.,8.35));
#548=CARTESIAN_POINT('',(30.,0.,0.));
#549=CARTESIAN_POINT('',(30.05,0.,0.));
#550=CARTESIAN_POINT('',(30.05,0.,6.54527618313501));
#551=CARTESIAN_POINT('',(30.05,6.18950769701581,0.));
#552=CARTESIAN_POINT('',(29.9038927725034,0.,0.));
#553=CARTESIAN_POINT('',(29.9038927725034,0.,5.50566924038403));
#554=CARTESIAN_POINT('',(29.9038927725034,0.,0.));
#555=CARTESIAN_POINT('',(30.3,0.,0.));
#556=CARTESIAN_POINT('',(30.3,0.,5.05));
#557=CARTESIAN_POINT('',(30.3,0.,0.));
#558=CARTESIAN_POINT('',(31.2535898384862,0.,0.));
#559=CARTESIAN_POINT('',(31.2535898384862,0.,5.05));
#560=CARTESIAN_POINT('',(53.8875,0.,0.));
#561=CARTESIAN_POINT('',(32.3265544456623,0.,0.));
#562=CARTESIAN_POINT('',(32.3265544456623,0.,-5.3375));
#563=CARTESIAN_POINT('',(32.,0.,0.));
#564=CARTESIAN_POINT('',(34.8734455543377,0.,0.));
#565=CARTESIAN_POINT('',(34.8734455543377,0.,5.3375));
#566=CARTESIAN_POINT('',(53.8875,0.,0.));
#567=CARTESIAN_POINT('',(36.,0.,0.));
#568=CARTESIAN_POINT('',(36.,0.,5.0356406460551));
#569=CARTESIAN_POINT('',(36.,0.,0.));
#570=CARTESIAN_POINT('',(36.,0.,0.));
#571=CARTESIAN_POINT('',(36.,0.,4.45));
#572=CARTESIAN_POINT('',(36.,4.45,0.));
#573=CARTESIAN_POINT('',(36.6,0.,0.));
#574=CARTESIAN_POINT('',(36.6,0.,3.85));
#575=CARTESIAN_POINT('',(36.6,0.,0.));
#576=CARTESIAN_POINT('',(37.6473720558371,0.,0.));
#577=CARTESIAN_POINT('',(37.6473720558371,0.,3.85));
#578=CARTESIAN_POINT('',(53.8875,0.,0.));
#579=CARTESIAN_POINT('',(37.9473720558371,0.,0.));
#580=CARTESIAN_POINT('',(37.9473720558371,0.,3.93038475772934));
#581=CARTESIAN_POINT('',(37.6473720558371,0.,0.));
#582=CARTESIAN_POINT('',(39.8,0.,0.));
#583=CARTESIAN_POINT('',(39.8,0.,5.));
#584=CARTESIAN_POINT('',(39.8,0.,0.));
#585=CARTESIAN_POINT('',(46.0575490199569,0.,0.));
#586=CARTESIAN_POINT('',(46.0575490199569,0.,5.));
#587=CARTESIAN_POINT('',(53.8875,0.,0.));
#588=CARTESIAN_POINT('',(49.5,0.,0.));
#589=CARTESIAN_POINT('',(49.5,0.,3.0125));
#590=CARTESIAN_POINT('',(49.5,0.,0.));
#591=CARTESIAN_POINT('',(49.5,5.42101086242752E-017,-2.38524477946811E-015));
#592=CARTESIAN_POINT('',(49.5,5.42101086242752E-017,2.125));
#593=CARTESIAN_POINT('',(49.5,1.33226762955019E-015,0.));
#594=CARTESIAN_POINT('',(45.6,5.42101086242752E-017,-2.38524477946811E-015));
#595=CARTESIAN_POINT('',(45.6,5.42101086242752E-017,0.999999999999998));
#596=CARTESIAN_POINT('',(44.9991393809724,5.42101086242752E-017,-2.38524477946811E-015));
#597=CARTESIAN_POINT('',(45.6,5.42101086242752E-017,-2.38524477946811E-015));
#598=CARTESIAN_POINT('',(47.551442841485,5.42101086242752E-017,-2.38524477946811E-015));
#599=CARTESIAN_POINT('',(47.551442841485,5.42101086242752E-017,0.999999999999998));
#600=CARTESIAN_POINT('',(45.6,5.42101086242752E-017,-2.38524477946811E-015));
#601=CARTESIAN_POINT('',(49.5,5.42101086242752E-017,-2.38524477946811E-015));
#602=CARTESIAN_POINT('',(20.,0.,0.));
#603=CARTESIAN_POINT('',(20.,0.,-9.35733426480171));
#604=CARTESIAN_POINT('',(20.,-3.7280195622498,-10.2426495665664));
#605=CARTESIAN_POINT('',(-9.,0.,0.));
#606=CARTESIAN_POINT('',(-9.,0.,2.56119201608002));
#607=CARTESIAN_POINT('',(-9.,6.06181771445335E-014,-3.03090885722668E-014));
#608=CARTESIAN_POINT('',(0.,0.,0.));
#609=CARTESIAN_POINT('',(0.,0.,-9.35733426480171));
#610=CARTESIAN_POINT('',(0.,0.,0.));
#611=CARTESIAN_POINT('',(0.,0.,0.));
#612=MECHANICAL_DESIGN_GEOMETRIC_PRESENTATION_REPRESENTATION('',(#345,#346,
#347),#613);
#613=(
GEOMETRIC_REPRESENTATION_CONTEXT(3)
GLOBAL_UNCERTAINTY_ASSIGNED_CONTEXT((#614))
GLOBAL_UNIT_ASSIGNED_CONTEXT((#620,#616,#615))
REPRESENTATION_CONTEXT('20K3R040M10_CXP20_SIM',
'TOP_LEVEL_ASSEMBLY_PART')
);
#614=UNCERTAINTY_MEASURE_WITH_UNIT(LENGTH_MEASURE(0.0508),#620,
'DISTANCE_ACCURACY_VALUE','Maximum Tolerance applied to model');
#615=(
NAMED_UNIT(*)
SI_UNIT($,.STERADIAN.)
SOLID_ANGLE_UNIT()
);
#616=(
CONVERSION_BASED_UNIT('DEGREE',#618)
NAMED_UNIT(#617)
PLANE_ANGLE_UNIT()
);
#617=DIMENSIONAL_EXPONENTS(0.,0.,0.,0.,0.,0.,0.);
#618=PLANE_ANGLE_MEASURE_WITH_UNIT(PLANE_ANGLE_MEASURE(0.0174532925),#619);
#619=(
NAMED_UNIT(*)
PLANE_ANGLE_UNIT()
SI_UNIT($,.RADIAN.)
);
#620=(
LENGTH_UNIT()
NAMED_UNIT(*)
SI_UNIT(.MILLI.,.METRE.)
);
ENDSEC;
END-ISO-10303-21;
