ISO-10303-21;
HEADER;
/* Generated by software containing ST-Developer
 * from STEP Tools, Inc. (www.steptools.com) 
 */
/* OPTION: using custom schema-name function */

FILE_DESCRIPTION(
/* description */ (''),
/* implementation_level */ '2;1');

FILE_NAME(
/* name */ '20K2R045A20-SRC20-A.stp',
/* time_stamp */ '2020-02-07T07:44:57+01:00',
/* author */ (''),
/* organization */ (''),
/* preprocessor_version */ 'ST-DEVELOPER v16.7',
/* originating_system */ 'SIEMENS PLM Software NX 12.0',
/* authorisation */ '');

FILE_SCHEMA (('AUTOMOTIVE_DESIGN { 1 0 10303 214 3 1 1 1 }'));
ENDSEC;

DATA;
#10=PROPERTY_DEFINITION_REPRESENTATION(#14,#12);
#11=PROPERTY_DEFINITION_REPRESENTATION(#15,#13);
#12=REPRESENTATION('',(#16),#262);
#13=REPRESENTATION('',(#17),#262);
#14=PROPERTY_DEFINITION('pmi validation property','',#21);
#15=PROPERTY_DEFINITION('pmi validation property','',#21);
#16=VALUE_REPRESENTATION_ITEM('number of annotations',COUNT_MEASURE(0.));
#17=VALUE_REPRESENTATION_ITEM('number of views',COUNT_MEASURE(0.));
#18=SHAPE_REPRESENTATION_RELATIONSHIP('None',
'relationship between pp07321CEE9Ebeme-None and pp07321CEE9Ebeme-None',
#30,#19);
#19=ADVANCED_BREP_SHAPE_REPRESENTATION('pp07321CEE9Ebeme-None',(#54,#55),
#262);
#20=SHAPE_DEFINITION_REPRESENTATION(#21,#30);
#21=PRODUCT_DEFINITION_SHAPE('','',#22);
#22=PRODUCT_DEFINITION(' ','',#24,#23);
#23=PRODUCT_DEFINITION_CONTEXT('part definition',#29,'design');
#24=PRODUCT_DEFINITION_FORMATION_WITH_SPECIFIED_SOURCE(' ',' ',#26,
 .NOT_KNOWN.);
#25=PRODUCT_RELATED_PRODUCT_CATEGORY('part','',(#26));
#26=PRODUCT('pp07321CEE9Ebeme','pp07321CEE9Ebeme',' ',(#27));
#27=PRODUCT_CONTEXT(' ',#29,'mechanical');
#28=APPLICATION_PROTOCOL_DEFINITION('international standard',
'automotive_design',2010,#29);
#29=APPLICATION_CONTEXT(
'core data for automotive mechanical design processes');
#30=SHAPE_REPRESENTATION('pp07321CEE9Ebeme-None',(#162),#262);
#31=CONICAL_SURFACE('',#179,9.,45.);
#32=TOROIDAL_SURFACE('',#178,13.,4.);
#33=SPHERICAL_SURFACE('',#177,9.);
#34=CYLINDRICAL_SURFACE('',#173,10.);
#35=CYLINDRICAL_SURFACE('',#176,9.);
#36=PRESENTATION_LAYER_ASSIGNMENT('96','Layer 96',(#54));
#37=PRESENTATION_LAYER_ASSIGNMENT('14','Layer 14',(#55));
#38=STYLED_ITEM('',(#40),#54);
#39=STYLED_ITEM('',(#41),#55);
#40=PRESENTATION_STYLE_ASSIGNMENT((#42));
#41=PRESENTATION_STYLE_ASSIGNMENT((#43));
#42=SURFACE_STYLE_USAGE(.BOTH.,#44);
#43=SURFACE_STYLE_USAGE(.BOTH.,#45);
#44=SURFACE_SIDE_STYLE('',(#46));
#45=SURFACE_SIDE_STYLE('',(#47));
#46=SURFACE_STYLE_FILL_AREA(#48);
#47=SURFACE_STYLE_FILL_AREA(#49);
#48=FILL_AREA_STYLE('',(#50));
#49=FILL_AREA_STYLE('',(#51));
#50=FILL_AREA_STYLE_COLOUR('',#52);
#51=FILL_AREA_STYLE_COLOUR('',#53);
#52=COLOUR_RGB('Light Gray',0.8,0.8,0.8);
#53=COLOUR_RGB('Silver Gray',0.6,0.6,0.6);
#54=MANIFOLD_SOLID_BREP('',#56);
#55=MANIFOLD_SOLID_BREP('',#57);
#56=CLOSED_SHELL('',(#81,#82,#83,#84,#85));
#57=CLOSED_SHELL('',(#86,#87,#88,#89,#90,#91));
#58=SURFACE_OF_REVOLUTION('',#64,#61);
#59=SURFACE_OF_REVOLUTION('',#65,#62);
#60=SURFACE_OF_REVOLUTION('',#66,#63);
#61=AXIS1_PLACEMENT('',#232,#192);
#62=AXIS1_PLACEMENT('',#239,#195);
#63=AXIS1_PLACEMENT('',#244,#196);
#64=(
BOUNDED_CURVE()
B_SPLINE_CURVE(3,(#228,#229,#230,#231),.UNSPECIFIED.,.F.,.F.)
B_SPLINE_CURVE_WITH_KNOTS((4,4),(0.,1.),.UNSPECIFIED.)
CURVE()
GEOMETRIC_REPRESENTATION_ITEM()
RATIONAL_B_SPLINE_CURVE((1.,0.747391971665716,0.747391971665716,1.))
REPRESENTATION_ITEM('')
);
#65=(
BOUNDED_CURVE()
B_SPLINE_CURVE(3,(#235,#236,#237,#238),.UNSPECIFIED.,.F.,.F.)
B_SPLINE_CURVE_WITH_KNOTS((4,4),(0.,1.),.UNSPECIFIED.)
CURVE()
GEOMETRIC_REPRESENTATION_ITEM()
RATIONAL_B_SPLINE_CURVE((1.,0.98751406086638,0.98751406086638,1.))
REPRESENTATION_ITEM('')
);
#66=(
BOUNDED_CURVE()
B_SPLINE_CURVE(3,(#240,#241,#242,#243),.UNSPECIFIED.,.F.,.F.)
B_SPLINE_CURVE_WITH_KNOTS((4,4),(0.,1.),.UNSPECIFIED.)
CURVE()
GEOMETRIC_REPRESENTATION_ITEM()
RATIONAL_B_SPLINE_CURVE((1.,0.999999401578813,0.999999401578813,1.))
REPRESENTATION_ITEM('')
);
#67=FACE_BOUND('',#101,.T.);
#68=FACE_BOUND('',#102,.T.);
#69=FACE_BOUND('',#103,.T.);
#70=FACE_BOUND('',#104,.T.);
#71=FACE_BOUND('',#105,.T.);
#72=FACE_BOUND('',#106,.T.);
#73=FACE_BOUND('',#108,.T.);
#74=FACE_BOUND('',#109,.T.);
#75=FACE_BOUND('',#110,.T.);
#76=FACE_BOUND('',#111,.T.);
#77=FACE_BOUND('',#113,.T.);
#78=FACE_BOUND('',#114,.T.);
#79=FACE_BOUND('',#115,.T.);
#80=FACE_BOUND('',#116,.T.);
#81=ADVANCED_FACE('',(#95),#92,.F.);
#82=ADVANCED_FACE('',(#96),#93,.T.);
#83=ADVANCED_FACE('',(#67,#68),#58,.T.);
#84=ADVANCED_FACE('',(#69,#70),#59,.T.);
#85=ADVANCED_FACE('',(#71,#72),#60,.T.);
#86=ADVANCED_FACE('',(#97),#94,.F.);
#87=ADVANCED_FACE('',(#73,#74),#34,.T.);
#88=ADVANCED_FACE('',(#75,#76),#35,.T.);
#89=ADVANCED_FACE('',(#98),#33,.T.);
#90=ADVANCED_FACE('',(#77,#78),#32,.F.);
#91=ADVANCED_FACE('',(#79,#80),#31,.T.);
#92=PLANE('',#164);
#93=PLANE('',#166);
#94=PLANE('',#170);
#95=FACE_OUTER_BOUND('',#99,.T.);
#96=FACE_OUTER_BOUND('',#100,.T.);
#97=FACE_OUTER_BOUND('',#107,.T.);
#98=FACE_OUTER_BOUND('',#112,.T.);
#99=EDGE_LOOP('',(#117));
#100=EDGE_LOOP('',(#118));
#101=EDGE_LOOP('',(#119));
#102=EDGE_LOOP('',(#120));
#103=EDGE_LOOP('',(#121));
#104=EDGE_LOOP('',(#122));
#105=EDGE_LOOP('',(#123));
#106=EDGE_LOOP('',(#124));
#107=EDGE_LOOP('',(#125));
#108=EDGE_LOOP('',(#126));
#109=EDGE_LOOP('',(#127));
#110=EDGE_LOOP('',(#128));
#111=EDGE_LOOP('',(#129));
#112=EDGE_LOOP('',(#130));
#113=EDGE_LOOP('',(#131));
#114=EDGE_LOOP('',(#132));
#115=EDGE_LOOP('',(#133));
#116=EDGE_LOOP('',(#134));
#117=ORIENTED_EDGE('',*,*,#144,.F.);
#118=ORIENTED_EDGE('',*,*,#145,.T.);
#119=ORIENTED_EDGE('',*,*,#145,.F.);
#120=ORIENTED_EDGE('',*,*,#146,.T.);
#121=ORIENTED_EDGE('',*,*,#146,.F.);
#122=ORIENTED_EDGE('',*,*,#147,.T.);
#123=ORIENTED_EDGE('',*,*,#147,.F.);
#124=ORIENTED_EDGE('',*,*,#144,.T.);
#125=ORIENTED_EDGE('',*,*,#148,.T.);
#126=ORIENTED_EDGE('',*,*,#149,.T.);
#127=ORIENTED_EDGE('',*,*,#150,.T.);
#128=ORIENTED_EDGE('',*,*,#151,.F.);
#129=ORIENTED_EDGE('',*,*,#152,.T.);
#130=ORIENTED_EDGE('',*,*,#152,.F.);
#131=ORIENTED_EDGE('',*,*,#151,.T.);
#132=ORIENTED_EDGE('',*,*,#150,.F.);
#133=ORIENTED_EDGE('',*,*,#149,.F.);
#134=ORIENTED_EDGE('',*,*,#148,.F.);
#135=VERTEX_POINT('',#221);
#136=VERTEX_POINT('',#224);
#137=VERTEX_POINT('',#227);
#138=VERTEX_POINT('',#234);
#139=VERTEX_POINT('',#246);
#140=VERTEX_POINT('',#249);
#141=VERTEX_POINT('',#251);
#142=VERTEX_POINT('',#254);
#143=VERTEX_POINT('',#256);
#144=EDGE_CURVE('',#135,#135,#153,.T.);
#145=EDGE_CURVE('',#136,#136,#154,.T.);
#146=EDGE_CURVE('',#137,#137,#155,.T.);
#147=EDGE_CURVE('',#138,#138,#156,.T.);
#148=EDGE_CURVE('',#139,#139,#157,.T.);
#149=EDGE_CURVE('',#140,#140,#158,.T.);
#150=EDGE_CURVE('',#141,#141,#159,.T.);
#151=EDGE_CURVE('',#142,#142,#160,.T.);
#152=EDGE_CURVE('',#143,#143,#161,.T.);
#153=CIRCLE('',#163,0.0155489797206507);
#154=CIRCLE('',#165,8.28311535595153);
#155=CIRCLE('',#167,4.07154054985923);
#156=CIRCLE('',#168,0.0317830004842925);
#157=CIRCLE('',#169,9.);
#158=CIRCLE('',#171,10.);
#159=CIRCLE('',#172,10.);
#160=CIRCLE('',#174,9.);
#161=CIRCLE('',#175,9.);
#162=AXIS2_PLACEMENT_3D('',#219,#180,#181);
#163=AXIS2_PLACEMENT_3D('',#220,#182,#183);
#164=AXIS2_PLACEMENT_3D('',#222,#184,#185);
#165=AXIS2_PLACEMENT_3D('',#223,#186,#187);
#166=AXIS2_PLACEMENT_3D('',#225,#188,#189);
#167=AXIS2_PLACEMENT_3D('',#226,#190,#191);
#168=AXIS2_PLACEMENT_3D('',#233,#193,#194);
#169=AXIS2_PLACEMENT_3D('',#245,#197,#198);
#170=AXIS2_PLACEMENT_3D('',#247,#199,#200);
#171=AXIS2_PLACEMENT_3D('',#248,#201,#202);
#172=AXIS2_PLACEMENT_3D('',#250,#203,#204);
#173=AXIS2_PLACEMENT_3D('',#252,#205,#206);
#174=AXIS2_PLACEMENT_3D('',#253,#207,#208);
#175=AXIS2_PLACEMENT_3D('',#255,#209,#210);
#176=AXIS2_PLACEMENT_3D('',#257,#211,#212);
#177=AXIS2_PLACEMENT_3D('',#258,#213,#214);
#178=AXIS2_PLACEMENT_3D('',#259,#215,#216);
#179=AXIS2_PLACEMENT_3D('',#260,#217,#218);
#180=DIRECTION('',(0.,0.,1.));
#181=DIRECTION('',(1.,0.,0.));
#182=DIRECTION('',(1.,0.,0.));
#183=DIRECTION('',(0.,0.,-1.));
#184=DIRECTION('',(1.,0.,0.));
#185=DIRECTION('',(0.,0.,-1.));
#186=DIRECTION('',(1.,0.,0.));
#187=DIRECTION('',(0.,0.,-1.));
#188=DIRECTION('',(1.,0.,0.));
#189=DIRECTION('',(0.,0.,-1.));
#190=DIRECTION('',(1.,0.,0.));
#191=DIRECTION('',(0.,0.,-1.));
#192=DIRECTION('',(1.,0.,0.));
#193=DIRECTION('',(1.,0.,0.));
#194=DIRECTION('',(0.,0.,-1.));
#195=DIRECTION('',(1.,0.,0.));
#196=DIRECTION('',(1.,0.,0.));
#197=DIRECTION('',(1.,0.,0.));
#198=DIRECTION('',(0.,0.,1.));
#199=DIRECTION('',(-1.,0.,0.));
#200=DIRECTION('',(0.,0.,1.));
#201=DIRECTION('',(-1.,0.,0.));
#202=DIRECTION('',(0.,0.,1.));
#203=DIRECTION('',(1.,0.,0.));
#204=DIRECTION('',(0.,0.,-1.));
#205=DIRECTION('',(1.,0.,0.));
#206=DIRECTION('',(0.,0.,-1.));
#207=DIRECTION('',(1.,0.,0.));
#208=DIRECTION('',(0.,0.,-1.));
#209=DIRECTION('',(1.,0.,0.));
#210=DIRECTION('',(0.,0.,-1.));
#211=DIRECTION('',(1.,0.,0.));
#212=DIRECTION('',(0.,0.,-1.));
#213=DIRECTION('',(0.,0.,1.));
#214=DIRECTION('',(1.,0.,0.));
#215=DIRECTION('',(1.,0.,0.));
#216=DIRECTION('',(0.,0.,-1.));
#217=DIRECTION('',(-1.,0.,0.));
#218=DIRECTION('',(2.75080035833785E-17,0.,1.));
#219=CARTESIAN_POINT('',(0.,0.,0.));
#220=CARTESIAN_POINT('',(0.182267666706875,0.,0.));
#221=CARTESIAN_POINT('',(0.182267666706875,0.,-0.0155489797206507));
#222=CARTESIAN_POINT('',(0.182267666706875,0.,0.));
#223=CARTESIAN_POINT('',(15.8,0.,0.));
#224=CARTESIAN_POINT('',(15.8,0.,-8.28311535595153));
#225=CARTESIAN_POINT('',(15.8,0.,0.));
#226=CARTESIAN_POINT('',(0.744052855009818,0.,0.));
#227=CARTESIAN_POINT('',(0.744052855009818,0.,-4.07154054985923));
#228=CARTESIAN_POINT('',(0.744052855009812,-3.78516082209832,1.5));
#229=CARTESIAN_POINT('',(3.39021920663805,-10.2558966874096,1.5));
#230=CARTESIAN_POINT('',(10.1051014084698,-12.2008840947307,1.5));
#231=CARTESIAN_POINT('',(15.8,-8.14616474176652,1.5));
#232=CARTESIAN_POINT('',(0.,0.,0.));
#233=CARTESIAN_POINT('',(0.185167975804959,0.,0.));
#234=CARTESIAN_POINT('',(0.185167975804959,0.,-0.0317830004842925));
#235=CARTESIAN_POINT('',(0.185167975804957,-0.0308417794176264,-0.0076774841021531));
#236=CARTESIAN_POINT('',(0.126466638118604,-1.31073526246298,0.503159703840901));
#237=CARTESIAN_POINT('',(0.315117075735168,-2.57799790761017,1.01207312723709));
#238=CARTESIAN_POINT('',(0.744052855009818,-3.78516082209832,1.5));
#239=CARTESIAN_POINT('',(0.,0.,0.));
#240=CARTESIAN_POINT('',(0.182267666706875,8.67361737988404E-16,0.0155489797206507));
#241=CARTESIAN_POINT('',(0.183220555736706,-0.0102821054601908,0.00778832135429041));
#242=CARTESIAN_POINT('',(0.184187326014605,-0.0205627047515295,4.61621136172682E-5));
#243=CARTESIAN_POINT('',(0.185167975804959,-0.0308417794176296,-0.00767748410215353));
#244=CARTESIAN_POINT('',(0.,0.,0.));
#245=CARTESIAN_POINT('',(160.,0.,0.));
#246=CARTESIAN_POINT('',(160.,0.,9.));
#247=CARTESIAN_POINT('',(160.,-10.,0.));
#248=CARTESIAN_POINT('',(159.,0.,0.));
#249=CARTESIAN_POINT('',(159.,0.,10.));
#250=CARTESIAN_POINT('',(45.,0.,0.));
#251=CARTESIAN_POINT('',(45.,0.,-10.));
#252=CARTESIAN_POINT('',(0.,0.,0.));
#253=CARTESIAN_POINT('',(42.3542486889354,0.,0.));
#254=CARTESIAN_POINT('',(42.3542486889354,0.,-9.));
#255=CARTESIAN_POINT('',(10.,0.,0.));
#256=CARTESIAN_POINT('',(10.,0.,-9.));
#257=CARTESIAN_POINT('',(0.,0.,0.));
#258=CARTESIAN_POINT('',(10.,0.,0.));
#259=CARTESIAN_POINT('',(42.3542486889354,0.,0.));
#260=CARTESIAN_POINT('',(160.,0.,0.));
#261=MECHANICAL_DESIGN_GEOMETRIC_PRESENTATION_REPRESENTATION('',(#38,#39),
#262);
#262=(
GEOMETRIC_REPRESENTATION_CONTEXT(3)
GLOBAL_UNCERTAINTY_ASSIGNED_CONTEXT((#263))
GLOBAL_UNIT_ASSIGNED_CONTEXT((#269,#265,#264))
REPRESENTATION_CONTEXT('20K2R045A20-SRC20-A','TOP_LEVEL_ASSEMBLY_PART')
);
#263=UNCERTAINTY_MEASURE_WITH_UNIT(LENGTH_MEASURE(2.E-5),#269,
'DISTANCE_ACCURACY_VALUE','Maximum Tolerance applied to model');
#264=(
NAMED_UNIT(*)
SI_UNIT($,.STERADIAN.)
SOLID_ANGLE_UNIT()
);
#265=(
CONVERSION_BASED_UNIT('DEGREE',#267)
NAMED_UNIT(#266)
PLANE_ANGLE_UNIT()
);
#266=DIMENSIONAL_EXPONENTS(0.,0.,0.,0.,0.,0.,0.);
#267=PLANE_ANGLE_MEASURE_WITH_UNIT(PLANE_ANGLE_MEASURE(0.0174532925),#268);
#268=(
NAMED_UNIT(*)
PLANE_ANGLE_UNIT()
SI_UNIT($,.RADIAN.)
);
#269=(
LENGTH_UNIT()
NAMED_UNIT(*)
SI_UNIT(.MILLI.,.METRE.)
);
ENDSEC;
END-ISO-10303-21;
