ISO-10303-21;
HEADER;
/* Generated by software containing ST-Developer
 * from STEP Tools, Inc. (www.steptools.com) 
 */
/* OPTION: using custom schema-name function */

FILE_DESCRIPTION(
/* description */ (''),
/* implementation_level */ '2;1');

FILE_NAME(
/* name */ '20K2R045A20-SLC20-A-SIM.stp',
/* time_stamp */ '2020-02-05T09:26:38+01:00',
/* author */ (''),
/* organization */ (''),
/* preprocessor_version */ 'ST-DEVELOPER v16.7',
/* originating_system */ 'SIEMENS PLM Software NX 12.0',
/* authorisation */ '');

FILE_SCHEMA (('AUTOMOTIVE_DESIGN { 1 0 10303 214 3 1 1 1 }'));
ENDSEC;

DATA;
#10=PROPERTY_DEFINITION_REPRESENTATION(#14,#12);
#11=PROPERTY_DEFINITION_REPRESENTATION(#15,#13);
#12=REPRESENTATION('',(#16),#280);
#13=REPRESENTATION('',(#17),#280);
#14=PROPERTY_DEFINITION('pmi validation property','',#21);
#15=PROPERTY_DEFINITION('pmi validation property','',#21);
#16=VALUE_REPRESENTATION_ITEM('number of annotations',COUNT_MEASURE(0.));
#17=VALUE_REPRESENTATION_ITEM('number of views',COUNT_MEASURE(0.));
#18=SHAPE_REPRESENTATION_RELATIONSHIP('None',
'relationship between hm1532102F367op1-None and hm1532102F367op1-None',
#30,#19);
#19=ADVANCED_BREP_SHAPE_REPRESENTATION('hm1532102F367op1-None',(#51,#52),
#280);
#20=SHAPE_DEFINITION_REPRESENTATION(#21,#30);
#21=PRODUCT_DEFINITION_SHAPE('','',#22);
#22=PRODUCT_DEFINITION(' ','',#24,#23);
#23=PRODUCT_DEFINITION_CONTEXT('part definition',#29,'design');
#24=PRODUCT_DEFINITION_FORMATION_WITH_SPECIFIED_SOURCE(' ',' ',#26,
 .NOT_KNOWN.);
#25=PRODUCT_RELATED_PRODUCT_CATEGORY('part','',(#26));
#26=PRODUCT('hm1532102F367op1','hm1532102F367op1',' ',(#27));
#27=PRODUCT_CONTEXT(' ',#29,'mechanical');
#28=APPLICATION_PROTOCOL_DEFINITION('international standard',
'automotive_design',2010,#29);
#29=APPLICATION_CONTEXT(
'core data for automotive mechanical design processes');
#30=SHAPE_REPRESENTATION('hm1532102F367op1-None',(#175),#280);
#31=TOROIDAL_SURFACE('',#192,13.,4.);
#32=TOROIDAL_SURFACE('',#195,8.,1.);
#33=PRESENTATION_LAYER_ASSIGNMENT('96','Layer 96',(#51));
#34=PRESENTATION_LAYER_ASSIGNMENT('14','Layer 14',(#52));
#35=STYLED_ITEM('',(#37),#51);
#36=STYLED_ITEM('',(#38),#52);
#37=PRESENTATION_STYLE_ASSIGNMENT((#39));
#38=PRESENTATION_STYLE_ASSIGNMENT((#40));
#39=SURFACE_STYLE_USAGE(.BOTH.,#41);
#40=SURFACE_STYLE_USAGE(.BOTH.,#42);
#41=SURFACE_SIDE_STYLE('',(#43));
#42=SURFACE_SIDE_STYLE('',(#44));
#43=SURFACE_STYLE_FILL_AREA(#45);
#44=SURFACE_STYLE_FILL_AREA(#46);
#45=FILL_AREA_STYLE('',(#47));
#46=FILL_AREA_STYLE('',(#48));
#47=FILL_AREA_STYLE_COLOUR('',#49);
#48=FILL_AREA_STYLE_COLOUR('',#50);
#49=COLOUR_RGB('Light Gray',0.8,0.8,0.8);
#50=COLOUR_RGB('Medium Gray',0.499992370489052,0.499992370489052,0.499992370489052);
#51=MANIFOLD_SOLID_BREP('',#53);
#52=MANIFOLD_SOLID_BREP('',#54);
#53=CLOSED_SHELL('',(#84,#85,#86,#87,#88,#89));
#54=CLOSED_SHELL('',(#90,#91,#92,#93,#94,#95));
#55=CYLINDRICAL_SURFACE('',#184,10.1118742080783);
#56=CYLINDRICAL_SURFACE('',#188,10.);
#57=CYLINDRICAL_SURFACE('',#191,9.);
#58=SURFACE_OF_REVOLUTION('',#64,#61);
#59=SURFACE_OF_REVOLUTION('',#65,#62);
#60=SURFACE_OF_REVOLUTION('',#169,#63);
#61=AXIS1_PLACEMENT('',#253,#209);
#62=AXIS1_PLACEMENT('',#257,#213);
#63=AXIS1_PLACEMENT('',#261,#218);
#64=LINE('',#252,#66);
#65=LINE('',#256,#67);
#66=VECTOR('',#208,4.29237855220014);
#67=VECTOR('',#212,4.28279638424644);
#68=FACE_BOUND('',#106,.T.);
#69=FACE_BOUND('',#107,.T.);
#70=FACE_BOUND('',#108,.T.);
#71=FACE_BOUND('',#109,.T.);
#72=FACE_BOUND('',#110,.T.);
#73=FACE_BOUND('',#111,.T.);
#74=FACE_BOUND('',#112,.T.);
#75=FACE_BOUND('',#113,.T.);
#76=FACE_BOUND('',#115,.T.);
#77=FACE_BOUND('',#116,.T.);
#78=FACE_BOUND('',#117,.T.);
#79=FACE_BOUND('',#118,.T.);
#80=FACE_BOUND('',#119,.T.);
#81=FACE_BOUND('',#120,.T.);
#82=FACE_BOUND('',#122,.T.);
#83=FACE_BOUND('',#123,.T.);
#84=ADVANCED_FACE('',(#100),#96,.T.);
#85=ADVANCED_FACE('',(#101),#97,.F.);
#86=ADVANCED_FACE('',(#68,#69),#58,.F.);
#87=ADVANCED_FACE('',(#70,#71),#59,.F.);
#88=ADVANCED_FACE('',(#72,#73),#60,.F.);
#89=ADVANCED_FACE('',(#74,#75),#55,.T.);
#90=ADVANCED_FACE('',(#102),#98,.F.);
#91=ADVANCED_FACE('',(#76,#77),#56,.T.);
#92=ADVANCED_FACE('',(#78,#79),#57,.T.);
#93=ADVANCED_FACE('',(#80,#81),#31,.F.);
#94=ADVANCED_FACE('',(#103),#99,.T.);
#95=ADVANCED_FACE('',(#82,#83),#32,.T.);
#96=PLANE('',#177);
#97=PLANE('',#179);
#98=PLANE('',#186);
#99=PLANE('',#194);
#100=FACE_OUTER_BOUND('',#104,.T.);
#101=FACE_OUTER_BOUND('',#105,.T.);
#102=FACE_OUTER_BOUND('',#114,.T.);
#103=FACE_OUTER_BOUND('',#121,.T.);
#104=EDGE_LOOP('',(#124));
#105=EDGE_LOOP('',(#125));
#106=EDGE_LOOP('',(#126));
#107=EDGE_LOOP('',(#127));
#108=EDGE_LOOP('',(#128));
#109=EDGE_LOOP('',(#129));
#110=EDGE_LOOP('',(#130));
#111=EDGE_LOOP('',(#131));
#112=EDGE_LOOP('',(#132));
#113=EDGE_LOOP('',(#133));
#114=EDGE_LOOP('',(#134));
#115=EDGE_LOOP('',(#135));
#116=EDGE_LOOP('',(#136));
#117=EDGE_LOOP('',(#137));
#118=EDGE_LOOP('',(#138));
#119=EDGE_LOOP('',(#139));
#120=EDGE_LOOP('',(#140));
#121=EDGE_LOOP('',(#141));
#122=EDGE_LOOP('',(#142));
#123=EDGE_LOOP('',(#143));
#124=ORIENTED_EDGE('',*,*,#154,.T.);
#125=ORIENTED_EDGE('',*,*,#155,.F.);
#126=ORIENTED_EDGE('',*,*,#155,.T.);
#127=ORIENTED_EDGE('',*,*,#156,.F.);
#128=ORIENTED_EDGE('',*,*,#156,.T.);
#129=ORIENTED_EDGE('',*,*,#157,.F.);
#130=ORIENTED_EDGE('',*,*,#157,.T.);
#131=ORIENTED_EDGE('',*,*,#158,.F.);
#132=ORIENTED_EDGE('',*,*,#158,.T.);
#133=ORIENTED_EDGE('',*,*,#154,.F.);
#134=ORIENTED_EDGE('',*,*,#159,.T.);
#135=ORIENTED_EDGE('',*,*,#159,.F.);
#136=ORIENTED_EDGE('',*,*,#160,.T.);
#137=ORIENTED_EDGE('',*,*,#161,.T.);
#138=ORIENTED_EDGE('',*,*,#162,.F.);
#139=ORIENTED_EDGE('',*,*,#162,.T.);
#140=ORIENTED_EDGE('',*,*,#160,.F.);
#141=ORIENTED_EDGE('',*,*,#163,.T.);
#142=ORIENTED_EDGE('',*,*,#163,.F.);
#143=ORIENTED_EDGE('',*,*,#161,.F.);
#144=VERTEX_POINT('',#245);
#145=VERTEX_POINT('',#248);
#146=VERTEX_POINT('',#251);
#147=VERTEX_POINT('',#255);
#148=VERTEX_POINT('',#259);
#149=VERTEX_POINT('',#264);
#150=VERTEX_POINT('',#267);
#151=VERTEX_POINT('',#270);
#152=VERTEX_POINT('',#272);
#153=VERTEX_POINT('',#276);
#154=EDGE_CURVE('',#144,#144,#164,.T.);
#155=EDGE_CURVE('',#145,#145,#165,.T.);
#156=EDGE_CURVE('',#146,#146,#166,.T.);
#157=EDGE_CURVE('',#147,#147,#167,.T.);
#158=EDGE_CURVE('',#148,#148,#168,.T.);
#159=EDGE_CURVE('',#149,#149,#170,.T.);
#160=EDGE_CURVE('',#150,#150,#171,.T.);
#161=EDGE_CURVE('',#151,#151,#172,.T.);
#162=EDGE_CURVE('',#152,#152,#173,.T.);
#163=EDGE_CURVE('',#153,#153,#174,.T.);
#164=CIRCLE('',#176,10.1118742080783);
#165=CIRCLE('',#178,0.0105384489982252);
#166=CIRCLE('',#180,4.26643287377632);
#167=CIRCLE('',#181,8.39563575383587);
#168=CIRCLE('',#182,10.1118742080783);
#169=CIRCLE('',#183,1.6);
#170=CIRCLE('',#185,10.);
#171=CIRCLE('',#187,10.);
#172=CIRCLE('',#189,9.);
#173=CIRCLE('',#190,9.);
#174=CIRCLE('',#193,8.);
#175=AXIS2_PLACEMENT_3D('',#243,#196,#197);
#176=AXIS2_PLACEMENT_3D('',#244,#198,#199);
#177=AXIS2_PLACEMENT_3D('',#246,#200,#201);
#178=AXIS2_PLACEMENT_3D('',#247,#202,#203);
#179=AXIS2_PLACEMENT_3D('',#249,#204,#205);
#180=AXIS2_PLACEMENT_3D('',#250,#206,#207);
#181=AXIS2_PLACEMENT_3D('',#254,#210,#211);
#182=AXIS2_PLACEMENT_3D('',#258,#214,#215);
#183=AXIS2_PLACEMENT_3D('',#260,#216,#217);
#184=AXIS2_PLACEMENT_3D('',#262,#219,#220);
#185=AXIS2_PLACEMENT_3D('',#263,#221,#222);
#186=AXIS2_PLACEMENT_3D('',#265,#223,#224);
#187=AXIS2_PLACEMENT_3D('',#266,#225,#226);
#188=AXIS2_PLACEMENT_3D('',#268,#227,#228);
#189=AXIS2_PLACEMENT_3D('',#269,#229,#230);
#190=AXIS2_PLACEMENT_3D('',#271,#231,#232);
#191=AXIS2_PLACEMENT_3D('',#273,#233,#234);
#192=AXIS2_PLACEMENT_3D('',#274,#235,#236);
#193=AXIS2_PLACEMENT_3D('',#275,#237,#238);
#194=AXIS2_PLACEMENT_3D('',#277,#239,#240);
#195=AXIS2_PLACEMENT_3D('',#278,#241,#242);
#196=DIRECTION('',(0.,0.,1.));
#197=DIRECTION('',(1.,0.,0.));
#198=DIRECTION('',(1.,0.,0.));
#199=DIRECTION('',(0.,0.,-1.));
#200=DIRECTION('',(1.,0.,0.));
#201=DIRECTION('',(0.,0.,-1.));
#202=DIRECTION('',(1.,0.,0.));
#203=DIRECTION('',(0.,0.,-1.));
#204=DIRECTION('',(1.,0.,0.));
#205=DIRECTION('',(0.,0.,-1.));
#206=DIRECTION('',(1.,0.,0.));
#207=DIRECTION('',(0.,0.,-1.));
#208=DIRECTION('',(0.124117507275913,0.929543183604308,-0.347194922489345));
#209=DIRECTION('',(1.,0.,0.));
#210=DIRECTION('',(1.,0.,0.));
#211=DIRECTION('',(0.,0.,-1.));
#212=DIRECTION('',(0.087155742747658,0.996194698091746,0.));
#213=DIRECTION('',(1.,0.,0.));
#214=DIRECTION('',(1.,0.,0.));
#215=DIRECTION('',(0.,0.,-1.));
#216=DIRECTION('',(0.,0.,-1.));
#217=DIRECTION('',(1.,1.22464679914735E-16,0.));
#218=DIRECTION('',(1.,0.,0.));
#219=DIRECTION('',(1.,0.,0.));
#220=DIRECTION('',(0.,0.,-1.));
#221=DIRECTION('',(1.,0.,0.));
#222=DIRECTION('',(0.,0.,-1.));
#223=DIRECTION('',(-1.,0.,0.));
#224=DIRECTION('',(0.,0.,1.));
#225=DIRECTION('',(1.,0.,0.));
#226=DIRECTION('',(0.,0.,-1.));
#227=DIRECTION('',(1.,0.,0.));
#228=DIRECTION('',(0.,0.,-1.));
#229=DIRECTION('',(1.,0.,0.));
#230=DIRECTION('',(0.,0.,1.));
#231=DIRECTION('',(1.,0.,0.));
#232=DIRECTION('',(0.,0.,-1.));
#233=DIRECTION('',(1.,0.,0.));
#234=DIRECTION('',(0.,0.,-1.));
#235=DIRECTION('',(1.,0.,0.));
#236=DIRECTION('',(0.,0.,-1.));
#237=DIRECTION('',(-1.,0.,0.));
#238=DIRECTION('',(0.,0.,1.));
#239=DIRECTION('',(-1.,0.,0.));
#240=DIRECTION('',(0.,0.,1.));
#241=DIRECTION('',(-1.,0.,0.));
#242=DIRECTION('',(0.,0.,1.));
#243=CARTESIAN_POINT('',(0.,0.,0.));
#244=CARTESIAN_POINT('',(17.8,0.,0.));
#245=CARTESIAN_POINT('',(17.8,0.,-10.1118742080783));
#246=CARTESIAN_POINT('',(17.8,0.,0.));
#247=CARTESIAN_POINT('',(0.912118109142863,0.,0.));
#248=CARTESIAN_POINT('',(0.912118109142863,0.,-0.0105384489982252));
#249=CARTESIAN_POINT('',(0.912118109142863,0.,0.));
#250=CARTESIAN_POINT('',(0.379358782959189,0.,0.));
#251=CARTESIAN_POINT('',(0.379358782959189,0.,-4.26643287377632));
#252=CARTESIAN_POINT('',(0.379358782959189,-3.99405176061093,1.5));
#253=CARTESIAN_POINT('',(0.,0.,0.));
#254=CARTESIAN_POINT('',(0.00608848305320639,0.,0.));
#255=CARTESIAN_POINT('',(0.00608848305320639,0.,-8.39563575383587));
#256=CARTESIAN_POINT('',(0.0060884830532062,-8.26055081160374,1.5));
#257=CARTESIAN_POINT('',(0.,0.,0.));
#258=CARTESIAN_POINT('',(1.6,0.,0.));
#259=CARTESIAN_POINT('',(1.6,0.,-10.1118742080783));
#260=CARTESIAN_POINT('',(1.6,-8.4,1.5));
#261=CARTESIAN_POINT('',(0.,0.,0.));
#262=CARTESIAN_POINT('',(0.,0.,0.));
#263=CARTESIAN_POINT('',(250.,0.,0.));
#264=CARTESIAN_POINT('',(250.,0.,-10.));
#265=CARTESIAN_POINT('',(250.,-10.,0.));
#266=CARTESIAN_POINT('',(45.,0.,0.));
#267=CARTESIAN_POINT('',(45.,0.,-10.));
#268=CARTESIAN_POINT('',(0.,0.,0.));
#269=CARTESIAN_POINT('',(2.,0.,0.));
#270=CARTESIAN_POINT('',(2.,0.,9.));
#271=CARTESIAN_POINT('',(42.3542486889354,0.,0.));
#272=CARTESIAN_POINT('',(42.3542486889354,0.,-9.));
#273=CARTESIAN_POINT('',(0.,0.,0.));
#274=CARTESIAN_POINT('',(42.3542486889354,0.,0.));
#275=CARTESIAN_POINT('',(1.,0.,0.));
#276=CARTESIAN_POINT('',(1.,0.,8.));
#277=CARTESIAN_POINT('',(1.,-9.,0.));
#278=CARTESIAN_POINT('',(2.,0.,0.));
#279=MECHANICAL_DESIGN_GEOMETRIC_PRESENTATION_REPRESENTATION('',(#35,#36),
#280);
#280=(
GEOMETRIC_REPRESENTATION_CONTEXT(3)
GLOBAL_UNCERTAINTY_ASSIGNED_CONTEXT((#281))
GLOBAL_UNIT_ASSIGNED_CONTEXT((#287,#283,#282))
REPRESENTATION_CONTEXT('20K2R045A20-SLC20-A-SIM',
'TOP_LEVEL_ASSEMBLY_PART')
);
#281=UNCERTAINTY_MEASURE_WITH_UNIT(LENGTH_MEASURE(2.E-5),#287,
'DISTANCE_ACCURACY_VALUE','Maximum Tolerance applied to model');
#282=(
NAMED_UNIT(*)
SI_UNIT($,.STERADIAN.)
SOLID_ANGLE_UNIT()
);
#283=(
CONVERSION_BASED_UNIT('DEGREE',#285)
NAMED_UNIT(#284)
PLANE_ANGLE_UNIT()
);
#284=DIMENSIONAL_EXPONENTS(0.,0.,0.,0.,0.,0.,0.);
#285=PLANE_ANGLE_MEASURE_WITH_UNIT(PLANE_ANGLE_MEASURE(0.0174532925),#286);
#286=(
NAMED_UNIT(*)
PLANE_ANGLE_UNIT()
SI_UNIT($,.RADIAN.)
);
#287=(
LENGTH_UNIT()
NAMED_UNIT(*)
SI_UNIT(.MILLI.,.METRE.)
);
ENDSEC;
END-ISO-10303-21;
