ISO-10303-21;
HEADER;
/* Generated by software containing ST-Developer
 * from STEP Tools, Inc. (www.steptools.com) 
 */
/* OPTION: using custom schema-name function */

FILE_DESCRIPTION(
/* description */ (''),
/* implementation_level */ '2;1');

FILE_NAME(
/* name */ '16N2R030E02_SSD09_A_SIM.stp',
/* time_stamp */ '2019-12-13T12:19:35+01:00',
/* author */ (''),
/* organization */ (''),
/* preprocessor_version */ 'ST-DEVELOPER v16.7',
/* originating_system */ 'SIEMENS PLM Software NX 12.0',
/* authorisation */ '');

FILE_SCHEMA (('AUTOMOTIVE_DESIGN { 1 0 10303 214 3 1 1 1 }'));
ENDSEC;

DATA;
#10=PROPERTY_DEFINITION_REPRESENTATION(#14,#12);
#11=PROPERTY_DEFINITION_REPRESENTATION(#15,#13);
#12=REPRESENTATION('',(#16),#681);
#13=REPRESENTATION('',(#17),#681);
#14=PROPERTY_DEFINITION('pmi validation property','',#21);
#15=PROPERTY_DEFINITION('pmi validation property','',#21);
#16=VALUE_REPRESENTATION_ITEM('number of annotations',COUNT_MEASURE(0.));
#17=VALUE_REPRESENTATION_ITEM('number of views',COUNT_MEASURE(0.));
#18=SHAPE_REPRESENTATION_RELATIONSHIP('None',
'relationship between pp0722D02805fr92-None and pp0722D02805fr92-None',
#30,#19);
#19=ADVANCED_BREP_SHAPE_REPRESENTATION('pp0722D02805fr92-None',(#74,#75),
#681);
#20=SHAPE_DEFINITION_REPRESENTATION(#21,#30);
#21=PRODUCT_DEFINITION_SHAPE('','',#22);
#22=PRODUCT_DEFINITION(' ','',#24,#23);
#23=PRODUCT_DEFINITION_CONTEXT('part definition',#29,'design');
#24=PRODUCT_DEFINITION_FORMATION_WITH_SPECIFIED_SOURCE(' ',' ',#26,
 .NOT_KNOWN.);
#25=PRODUCT_RELATED_PRODUCT_CATEGORY('part','',(#26));
#26=PRODUCT('pp0722D02805fr92','pp0722D02805fr92',' ',(#27));
#27=PRODUCT_CONTEXT(' ',#29,'mechanical');
#28=APPLICATION_PROTOCOL_DEFINITION('international standard',
'automotive_design',2010,#29);
#29=APPLICATION_CONTEXT(
'core data for automotive mechanical design processes');
#30=SHAPE_REPRESENTATION('pp0722D02805fr92-None',(#400),#681);
#31=PLANE('',#427);
#32=PLANE('',#431);
#33=PLANE('',#435);
#34=PLANE('',#439);
#35=PLANE('',#452);
#36=CYLINDRICAL_SURFACE('',#425,7.);
#37=CYLINDRICAL_SURFACE('',#433,7.65);
#38=CYLINDRICAL_SURFACE('',#442,7.75);
#39=CYLINDRICAL_SURFACE('',#450,4.3);
#40=CYLINDRICAL_SURFACE('',#454,5.25);
#41=CYLINDRICAL_SURFACE('',#458,13.1643728278933);
#42=VERTEX_LOOP('',#321);
#43=VERTEX_LOOP('',#336);
#44=SURFACE_OF_REVOLUTION('',#50,#47);
#45=SURFACE_OF_REVOLUTION('',#51,#48);
#46=SURFACE_OF_REVOLUTION('',#52,#49);
#47=AXIS1_PLACEMENT('',#613,#498);
#48=AXIS1_PLACEMENT('',#619,#504);
#49=AXIS1_PLACEMENT('',#623,#508);
#50=LINE('',#612,#53);
#51=LINE('',#618,#54);
#52=LINE('',#622,#55);
#53=VECTOR('',#497,0.0235257019321661);
#54=VECTOR('',#503,8.72940696354694);
#55=VECTOR('',#507,8.37507059450989);
#56=PRESENTATION_LAYER_ASSIGNMENT('96','Layer 96',(#74));
#57=PRESENTATION_LAYER_ASSIGNMENT('14','Layer 14',(#75));
#58=STYLED_ITEM('',(#60),#74);
#59=STYLED_ITEM('',(#61),#75);
#60=PRESENTATION_STYLE_ASSIGNMENT((#62));
#61=PRESENTATION_STYLE_ASSIGNMENT((#63));
#62=SURFACE_STYLE_USAGE(.BOTH.,#64);
#63=SURFACE_STYLE_USAGE(.BOTH.,#65);
#64=SURFACE_SIDE_STYLE('',(#66));
#65=SURFACE_SIDE_STYLE('',(#67));
#66=SURFACE_STYLE_FILL_AREA(#68);
#67=SURFACE_STYLE_FILL_AREA(#69);
#68=FILL_AREA_STYLE('',(#70));
#69=FILL_AREA_STYLE('',(#71));
#70=FILL_AREA_STYLE_COLOUR('',#72);
#71=FILL_AREA_STYLE_COLOUR('',#73);
#72=COLOUR_RGB('Light Gray',0.8,0.8,0.8);
#73=COLOUR_RGB('Silver Gray',0.6,0.6,0.6);
#74=MANIFOLD_SOLID_BREP('',#76);
#75=MANIFOLD_SOLID_BREP('',#77);
#76=CLOSED_SHELL('',(#89,#90,#91,#92,#93,#94,#95,#96));
#77=CLOSED_SHELL('',(#97,#98,#99,#100,#101,#102,#103,#104,#105,#106,#107,
#108,#109,#110,#111,#112,#113,#114,#115,#116,#117,#118,#119));
#78=CONICAL_SURFACE('',#405,7.09501649698558,45.);
#79=CONICAL_SURFACE('',#409,1.49119525608212,44.9999999999999);
#80=CONICAL_SURFACE('',#413,8.22638734688403,45.0000000000001);
#81=CONICAL_SURFACE('',#416,13.8302085877874,45.);
#82=CONICAL_SURFACE('',#422,5.96116660182339E-18,85.);
#83=CONICAL_SURFACE('',#429,7.9160190561033,1.4306);
#84=CONICAL_SURFACE('',#437,9.01486935178163,1.43060000000001);
#85=CONICAL_SURFACE('',#443,13.6967144597168,45.);
#86=CONICAL_SURFACE('',#446,6.5,60.);
#87=CONICAL_SURFACE('',#448,4.3,60.);
#88=CONICAL_SURFACE('',#455,6.25,30.);
#89=ADVANCED_FACE('',(#126,#127),#120,.T.);
#90=ADVANCED_FACE('',(#128,#129),#78,.F.);
#91=ADVANCED_FACE('',(#130,#131),#121,.T.);
#92=ADVANCED_FACE('',(#132,#133),#79,.F.);
#93=ADVANCED_FACE('',(#134,#135),#122,.T.);
#94=ADVANCED_FACE('',(#136,#137),#80,.T.);
#95=ADVANCED_FACE('',(#138,#139),#123,.T.);
#96=ADVANCED_FACE('',(#140,#141),#81,.T.);
#97=ADVANCED_FACE('',(#142,#143),#44,.T.);
#98=ADVANCED_FACE('',(#144,#145),#45,.T.);
#99=ADVANCED_FACE('',(#146,#147),#46,.T.);
#100=ADVANCED_FACE('',(#148,#149),#82,.F.);
#101=ADVANCED_FACE('',(#150,#151),#36,.T.);
#102=ADVANCED_FACE('',(#152,#153),#31,.F.);
#103=ADVANCED_FACE('',(#154,#155),#83,.T.);
#104=ADVANCED_FACE('',(#156,#157),#32,.F.);
#105=ADVANCED_FACE('',(#158,#159),#37,.T.);
#106=ADVANCED_FACE('',(#160,#161),#33,.F.);
#107=ADVANCED_FACE('',(#162,#163),#84,.T.);
#108=ADVANCED_FACE('',(#164,#165),#34,.F.);
#109=ADVANCED_FACE('',(#166,#167),#38,.T.);
#110=ADVANCED_FACE('',(#168,#169),#85,.T.);
#111=ADVANCED_FACE('',(#170,#171),#86,.F.);
#112=ADVANCED_FACE('',(#172,#173),#87,.F.);
#113=ADVANCED_FACE('',(#174,#175),#39,.F.);
#114=ADVANCED_FACE('',(#176,#177),#35,.F.);
#115=ADVANCED_FACE('',(#178,#179),#40,.F.);
#116=ADVANCED_FACE('',(#180,#181),#88,.F.);
#117=ADVANCED_FACE('',(#182,#183),#124,.T.);
#118=ADVANCED_FACE('',(#184,#185),#125,.F.);
#119=ADVANCED_FACE('',(#186,#187),#41,.T.);
#120=TOROIDAL_SURFACE('',#403,7.66070192193481,0.800000000000001);
#121=TOROIDAL_SURFACE('',#407,2.05688068103142,0.800000000000001);
#122=TOROIDAL_SURFACE('',#411,7.6607019219348,0.800000000000001);
#123=TOROIDAL_SURFACE('',#415,13.2645231628382,0.800000000000001);
#124=TOROIDAL_SURFACE('',#456,6.5,0.5);
#125=TOROIDAL_SURFACE('',#457,8.55,0.8);
#126=FACE_BOUND('',#188,.T.);
#127=FACE_BOUND('',#189,.T.);
#128=FACE_BOUND('',#190,.T.);
#129=FACE_BOUND('',#191,.T.);
#130=FACE_BOUND('',#192,.T.);
#131=FACE_BOUND('',#193,.T.);
#132=FACE_BOUND('',#194,.T.);
#133=FACE_BOUND('',#195,.T.);
#134=FACE_BOUND('',#196,.T.);
#135=FACE_BOUND('',#197,.T.);
#136=FACE_BOUND('',#198,.T.);
#137=FACE_BOUND('',#199,.T.);
#138=FACE_BOUND('',#200,.T.);
#139=FACE_BOUND('',#201,.T.);
#140=FACE_BOUND('',#202,.T.);
#141=FACE_BOUND('',#203,.T.);
#142=FACE_BOUND('',#204,.T.);
#143=FACE_BOUND('',#205,.T.);
#144=FACE_BOUND('',#206,.T.);
#145=FACE_BOUND('',#207,.T.);
#146=FACE_BOUND('',#208,.T.);
#147=FACE_BOUND('',#209,.T.);
#148=FACE_BOUND('',#210,.T.);
#149=FACE_BOUND('',#42,.T.);
#150=FACE_BOUND('',#211,.T.);
#151=FACE_BOUND('',#212,.T.);
#152=FACE_BOUND('',#213,.T.);
#153=FACE_BOUND('',#214,.T.);
#154=FACE_BOUND('',#215,.T.);
#155=FACE_BOUND('',#216,.T.);
#156=FACE_BOUND('',#217,.T.);
#157=FACE_BOUND('',#218,.T.);
#158=FACE_BOUND('',#219,.T.);
#159=FACE_BOUND('',#220,.T.);
#160=FACE_BOUND('',#221,.T.);
#161=FACE_BOUND('',#222,.T.);
#162=FACE_BOUND('',#223,.T.);
#163=FACE_BOUND('',#224,.T.);
#164=FACE_BOUND('',#225,.T.);
#165=FACE_BOUND('',#226,.T.);
#166=FACE_BOUND('',#227,.T.);
#167=FACE_BOUND('',#228,.T.);
#168=FACE_BOUND('',#229,.T.);
#169=FACE_BOUND('',#230,.T.);
#170=FACE_BOUND('',#231,.T.);
#171=FACE_BOUND('',#232,.T.);
#172=FACE_BOUND('',#233,.T.);
#173=FACE_BOUND('',#43,.T.);
#174=FACE_BOUND('',#234,.T.);
#175=FACE_BOUND('',#235,.T.);
#176=FACE_BOUND('',#236,.T.);
#177=FACE_BOUND('',#237,.T.);
#178=FACE_BOUND('',#238,.T.);
#179=FACE_BOUND('',#239,.T.);
#180=FACE_BOUND('',#240,.T.);
#181=FACE_BOUND('',#241,.T.);
#182=FACE_BOUND('',#242,.T.);
#183=FACE_BOUND('',#243,.T.);
#184=FACE_BOUND('',#244,.T.);
#185=FACE_BOUND('',#245,.T.);
#186=FACE_BOUND('',#246,.T.);
#187=FACE_BOUND('',#247,.T.);
#188=EDGE_LOOP('',(#248));
#189=EDGE_LOOP('',(#249));
#190=EDGE_LOOP('',(#250));
#191=EDGE_LOOP('',(#251));
#192=EDGE_LOOP('',(#252));
#193=EDGE_LOOP('',(#253));
#194=EDGE_LOOP('',(#254));
#195=EDGE_LOOP('',(#255));
#196=EDGE_LOOP('',(#256));
#197=EDGE_LOOP('',(#257));
#198=EDGE_LOOP('',(#258));
#199=EDGE_LOOP('',(#259));
#200=EDGE_LOOP('',(#260));
#201=EDGE_LOOP('',(#261));
#202=EDGE_LOOP('',(#262));
#203=EDGE_LOOP('',(#263));
#204=EDGE_LOOP('',(#264));
#205=EDGE_LOOP('',(#265));
#206=EDGE_LOOP('',(#266));
#207=EDGE_LOOP('',(#267));
#208=EDGE_LOOP('',(#268));
#209=EDGE_LOOP('',(#269));
#210=EDGE_LOOP('',(#270));
#211=EDGE_LOOP('',(#271));
#212=EDGE_LOOP('',(#272));
#213=EDGE_LOOP('',(#273));
#214=EDGE_LOOP('',(#274));
#215=EDGE_LOOP('',(#275));
#216=EDGE_LOOP('',(#276));
#217=EDGE_LOOP('',(#277));
#218=EDGE_LOOP('',(#278));
#219=EDGE_LOOP('',(#279));
#220=EDGE_LOOP('',(#280));
#221=EDGE_LOOP('',(#281));
#222=EDGE_LOOP('',(#282));
#223=EDGE_LOOP('',(#283));
#224=EDGE_LOOP('',(#284));
#225=EDGE_LOOP('',(#285));
#226=EDGE_LOOP('',(#286));
#227=EDGE_LOOP('',(#287));
#228=EDGE_LOOP('',(#288));
#229=EDGE_LOOP('',(#289));
#230=EDGE_LOOP('',(#290));
#231=EDGE_LOOP('',(#291));
#232=EDGE_LOOP('',(#292));
#233=EDGE_LOOP('',(#293));
#234=EDGE_LOOP('',(#294));
#235=EDGE_LOOP('',(#295));
#236=EDGE_LOOP('',(#296));
#237=EDGE_LOOP('',(#297));
#238=EDGE_LOOP('',(#298));
#239=EDGE_LOOP('',(#299));
#240=EDGE_LOOP('',(#300));
#241=EDGE_LOOP('',(#301));
#242=EDGE_LOOP('',(#302));
#243=EDGE_LOOP('',(#303));
#244=EDGE_LOOP('',(#304));
#245=EDGE_LOOP('',(#305));
#246=EDGE_LOOP('',(#306));
#247=EDGE_LOOP('',(#307));
#248=ORIENTED_EDGE('',*,*,#340,.F.);
#249=ORIENTED_EDGE('',*,*,#341,.T.);
#250=ORIENTED_EDGE('',*,*,#342,.F.);
#251=ORIENTED_EDGE('',*,*,#340,.T.);
#252=ORIENTED_EDGE('',*,*,#343,.T.);
#253=ORIENTED_EDGE('',*,*,#342,.T.);
#254=ORIENTED_EDGE('',*,*,#344,.F.);
#255=ORIENTED_EDGE('',*,*,#343,.F.);
#256=ORIENTED_EDGE('',*,*,#345,.F.);
#257=ORIENTED_EDGE('',*,*,#344,.T.);
#258=ORIENTED_EDGE('',*,*,#346,.F.);
#259=ORIENTED_EDGE('',*,*,#345,.T.);
#260=ORIENTED_EDGE('',*,*,#347,.T.);
#261=ORIENTED_EDGE('',*,*,#346,.T.);
#262=ORIENTED_EDGE('',*,*,#341,.F.);
#263=ORIENTED_EDGE('',*,*,#347,.F.);
#264=ORIENTED_EDGE('',*,*,#348,.F.);
#265=ORIENTED_EDGE('',*,*,#349,.T.);
#266=ORIENTED_EDGE('',*,*,#350,.T.);
#267=ORIENTED_EDGE('',*,*,#351,.T.);
#268=ORIENTED_EDGE('',*,*,#352,.T.);
#269=ORIENTED_EDGE('',*,*,#348,.T.);
#270=ORIENTED_EDGE('',*,*,#351,.F.);
#271=ORIENTED_EDGE('',*,*,#353,.T.);
#272=ORIENTED_EDGE('',*,*,#354,.T.);
#273=ORIENTED_EDGE('',*,*,#354,.F.);
#274=ORIENTED_EDGE('',*,*,#355,.T.);
#275=ORIENTED_EDGE('',*,*,#355,.F.);
#276=ORIENTED_EDGE('',*,*,#356,.T.);
#277=ORIENTED_EDGE('',*,*,#356,.F.);
#278=ORIENTED_EDGE('',*,*,#357,.T.);
#279=ORIENTED_EDGE('',*,*,#357,.F.);
#280=ORIENTED_EDGE('',*,*,#358,.T.);
#281=ORIENTED_EDGE('',*,*,#358,.F.);
#282=ORIENTED_EDGE('',*,*,#359,.T.);
#283=ORIENTED_EDGE('',*,*,#359,.F.);
#284=ORIENTED_EDGE('',*,*,#360,.T.);
#285=ORIENTED_EDGE('',*,*,#361,.T.);
#286=ORIENTED_EDGE('',*,*,#360,.F.);
#287=ORIENTED_EDGE('',*,*,#362,.T.);
#288=ORIENTED_EDGE('',*,*,#363,.T.);
#289=ORIENTED_EDGE('',*,*,#349,.F.);
#290=ORIENTED_EDGE('',*,*,#363,.F.);
#291=ORIENTED_EDGE('',*,*,#364,.F.);
#292=ORIENTED_EDGE('',*,*,#365,.F.);
#293=ORIENTED_EDGE('',*,*,#366,.T.);
#294=ORIENTED_EDGE('',*,*,#367,.T.);
#295=ORIENTED_EDGE('',*,*,#366,.F.);
#296=ORIENTED_EDGE('',*,*,#368,.F.);
#297=ORIENTED_EDGE('',*,*,#367,.F.);
#298=ORIENTED_EDGE('',*,*,#368,.T.);
#299=ORIENTED_EDGE('',*,*,#369,.F.);
#300=ORIENTED_EDGE('',*,*,#365,.T.);
#301=ORIENTED_EDGE('',*,*,#369,.T.);
#302=ORIENTED_EDGE('',*,*,#353,.F.);
#303=ORIENTED_EDGE('',*,*,#364,.T.);
#304=ORIENTED_EDGE('',*,*,#362,.F.);
#305=ORIENTED_EDGE('',*,*,#361,.F.);
#306=ORIENTED_EDGE('',*,*,#350,.F.);
#307=ORIENTED_EDGE('',*,*,#352,.F.);
#308=VERTEX_POINT('',#585);
#309=VERTEX_POINT('',#587);
#310=VERTEX_POINT('',#590);
#311=VERTEX_POINT('',#593);
#312=VERTEX_POINT('',#596);
#313=VERTEX_POINT('',#599);
#314=VERTEX_POINT('',#602);
#315=VERTEX_POINT('',#605);
#316=VERTEX_POINT('',#609);
#317=VERTEX_POINT('',#611);
#318=VERTEX_POINT('',#615);
#319=VERTEX_POINT('',#617);
#320=VERTEX_POINT('',#621);
#321=VERTEX_POINT('',#624);
#322=VERTEX_POINT('',#627);
#323=VERTEX_POINT('',#629);
#324=VERTEX_POINT('',#632);
#325=VERTEX_POINT('',#635);
#326=VERTEX_POINT('',#638);
#327=VERTEX_POINT('',#641);
#328=VERTEX_POINT('',#644);
#329=VERTEX_POINT('',#647);
#330=VERTEX_POINT('',#650);
#331=VERTEX_POINT('',#653);
#332=VERTEX_POINT('',#655);
#333=VERTEX_POINT('',#659);
#334=VERTEX_POINT('',#661);
#335=VERTEX_POINT('',#664);
#336=VERTEX_POINT('',#665);
#337=VERTEX_POINT('',#668);
#338=VERTEX_POINT('',#671);
#339=VERTEX_POINT('',#674);
#340=EDGE_CURVE('',#308,#308,#370,.T.);
#341=EDGE_CURVE('',#309,#309,#371,.T.);
#342=EDGE_CURVE('',#310,#310,#372,.T.);
#343=EDGE_CURVE('',#311,#311,#373,.T.);
#344=EDGE_CURVE('',#312,#312,#374,.T.);
#345=EDGE_CURVE('',#313,#313,#375,.T.);
#346=EDGE_CURVE('',#314,#314,#376,.T.);
#347=EDGE_CURVE('',#315,#315,#377,.T.);
#348=EDGE_CURVE('',#316,#316,#378,.T.);
#349=EDGE_CURVE('',#317,#317,#379,.T.);
#350=EDGE_CURVE('',#318,#318,#380,.T.);
#351=EDGE_CURVE('',#319,#319,#381,.T.);
#352=EDGE_CURVE('',#320,#320,#382,.T.);
#353=EDGE_CURVE('',#322,#322,#383,.T.);
#354=EDGE_CURVE('',#323,#323,#384,.T.);
#355=EDGE_CURVE('',#324,#324,#385,.T.);
#356=EDGE_CURVE('',#325,#325,#386,.T.);
#357=EDGE_CURVE('',#326,#326,#387,.T.);
#358=EDGE_CURVE('',#327,#327,#388,.T.);
#359=EDGE_CURVE('',#328,#328,#389,.T.);
#360=EDGE_CURVE('',#329,#329,#390,.T.);
#361=EDGE_CURVE('',#330,#330,#391,.T.);
#362=EDGE_CURVE('',#331,#331,#392,.T.);
#363=EDGE_CURVE('',#332,#332,#393,.T.);
#364=EDGE_CURVE('',#333,#333,#394,.T.);
#365=EDGE_CURVE('',#334,#334,#395,.T.);
#366=EDGE_CURVE('',#335,#335,#396,.T.);
#367=EDGE_CURVE('',#337,#337,#397,.T.);
#368=EDGE_CURVE('',#338,#338,#398,.T.);
#369=EDGE_CURVE('',#339,#339,#399,.T.);
#370=CIRCLE('',#401,7.09501649698558);
#371=CIRCLE('',#402,8.22638734688404);
#372=CIRCLE('',#404,1.49119525608218);
#373=CIRCLE('',#406,1.49119525608212);
#374=CIRCLE('',#408,7.09501649698556);
#375=CIRCLE('',#410,8.22638734688403);
#376=CIRCLE('',#412,13.8302085877874);
#377=CIRCLE('',#414,13.8302085877874);
#378=CIRCLE('',#417,7.75);
#379=CIRCLE('',#418,7.7511535797564);
#380=CIRCLE('',#419,13.1643728278933);
#381=CIRCLE('',#420,8.23040288935257);
#382=CIRCLE('',#421,13.1643728278933);
#383=CIRCLE('',#423,7.);
#384=CIRCLE('',#424,7.);
#385=CIRCLE('',#426,7.41654164897679);
#386=CIRCLE('',#428,7.9160190561033);
#387=CIRCLE('',#430,7.65);
#388=CIRCLE('',#432,7.65);
#389=CIRCLE('',#434,8.16575775966656);
#390=CIRCLE('',#436,9.01486935178163);
#391=CIRCLE('',#438,8.55);
#392=CIRCLE('',#440,7.75);
#393=CIRCLE('',#441,7.75);
#394=CIRCLE('',#444,6.5);
#395=CIRCLE('',#445,6.12500000000001);
#396=CIRCLE('',#447,4.3);
#397=CIRCLE('',#449,4.3);
#398=CIRCLE('',#451,5.25);
#399=CIRCLE('',#453,5.25);
#400=AXIS2_PLACEMENT_3D('',#583,#459,#460);
#401=AXIS2_PLACEMENT_3D('',#584,#461,#462);
#402=AXIS2_PLACEMENT_3D('',#586,#463,#464);
#403=AXIS2_PLACEMENT_3D('',#588,#465,#466);
#404=AXIS2_PLACEMENT_3D('',#589,#467,#468);
#405=AXIS2_PLACEMENT_3D('',#591,#469,#470);
#406=AXIS2_PLACEMENT_3D('',#592,#471,#472);
#407=AXIS2_PLACEMENT_3D('',#594,#473,#474);
#408=AXIS2_PLACEMENT_3D('',#595,#475,#476);
#409=AXIS2_PLACEMENT_3D('',#597,#477,#478);
#410=AXIS2_PLACEMENT_3D('',#598,#479,#480);
#411=AXIS2_PLACEMENT_3D('',#600,#481,#482);
#412=AXIS2_PLACEMENT_3D('',#601,#483,#484);
#413=AXIS2_PLACEMENT_3D('',#603,#485,#486);
#414=AXIS2_PLACEMENT_3D('',#604,#487,#488);
#415=AXIS2_PLACEMENT_3D('',#606,#489,#490);
#416=AXIS2_PLACEMENT_3D('',#607,#491,#492);
#417=AXIS2_PLACEMENT_3D('',#608,#493,#494);
#418=AXIS2_PLACEMENT_3D('',#610,#495,#496);
#419=AXIS2_PLACEMENT_3D('',#614,#499,#500);
#420=AXIS2_PLACEMENT_3D('',#616,#501,#502);
#421=AXIS2_PLACEMENT_3D('',#620,#505,#506);
#422=AXIS2_PLACEMENT_3D('',#625,#509,#510);
#423=AXIS2_PLACEMENT_3D('',#626,#511,#512);
#424=AXIS2_PLACEMENT_3D('',#628,#513,#514);
#425=AXIS2_PLACEMENT_3D('',#630,#515,#516);
#426=AXIS2_PLACEMENT_3D('',#631,#517,#518);
#427=AXIS2_PLACEMENT_3D('',#633,#519,#520);
#428=AXIS2_PLACEMENT_3D('',#634,#521,#522);
#429=AXIS2_PLACEMENT_3D('',#636,#523,#524);
#430=AXIS2_PLACEMENT_3D('',#637,#525,#526);
#431=AXIS2_PLACEMENT_3D('',#639,#527,#528);
#432=AXIS2_PLACEMENT_3D('',#640,#529,#530);
#433=AXIS2_PLACEMENT_3D('',#642,#531,#532);
#434=AXIS2_PLACEMENT_3D('',#643,#533,#534);
#435=AXIS2_PLACEMENT_3D('',#645,#535,#536);
#436=AXIS2_PLACEMENT_3D('',#646,#537,#538);
#437=AXIS2_PLACEMENT_3D('',#648,#539,#540);
#438=AXIS2_PLACEMENT_3D('',#649,#541,#542);
#439=AXIS2_PLACEMENT_3D('',#651,#543,#544);
#440=AXIS2_PLACEMENT_3D('',#652,#545,#546);
#441=AXIS2_PLACEMENT_3D('',#654,#547,#548);
#442=AXIS2_PLACEMENT_3D('',#656,#549,#550);
#443=AXIS2_PLACEMENT_3D('',#657,#551,#552);
#444=AXIS2_PLACEMENT_3D('',#658,#553,#554);
#445=AXIS2_PLACEMENT_3D('',#660,#555,#556);
#446=AXIS2_PLACEMENT_3D('',#662,#557,#558);
#447=AXIS2_PLACEMENT_3D('',#663,#559,#560);
#448=AXIS2_PLACEMENT_3D('',#666,#561,#562);
#449=AXIS2_PLACEMENT_3D('',#667,#563,#564);
#450=AXIS2_PLACEMENT_3D('',#669,#565,#566);
#451=AXIS2_PLACEMENT_3D('',#670,#567,#568);
#452=AXIS2_PLACEMENT_3D('',#672,#569,#570);
#453=AXIS2_PLACEMENT_3D('',#673,#571,#572);
#454=AXIS2_PLACEMENT_3D('',#675,#573,#574);
#455=AXIS2_PLACEMENT_3D('',#676,#575,#576);
#456=AXIS2_PLACEMENT_3D('',#677,#577,#578);
#457=AXIS2_PLACEMENT_3D('',#678,#579,#580);
#458=AXIS2_PLACEMENT_3D('',#679,#581,#582);
#459=DIRECTION('',(0.,0.,1.));
#460=DIRECTION('',(1.,0.,0.));
#461=DIRECTION('',(0.,0.,-1.));
#462=DIRECTION('',(-1.,0.,0.));
#463=DIRECTION('',(0.,0.,-1.));
#464=DIRECTION('',(-1.,0.,0.));
#465=DIRECTION('',(0.,0.,-1.));
#466=DIRECTION('',(-1.,0.,0.));
#467=DIRECTION('',(0.,0.,-1.));
#468=DIRECTION('',(-1.,0.,0.));
#469=DIRECTION('',(0.,0.,-1.));
#470=DIRECTION('',(-1.,0.,-3.44500458757259E-18));
#471=DIRECTION('',(0.,0.,1.));
#472=DIRECTION('',(-1.,0.,0.));
#473=DIRECTION('',(0.,0.,-1.));
#474=DIRECTION('',(-1.,0.,0.));
#475=DIRECTION('',(0.,0.,-1.));
#476=DIRECTION('',(-1.,0.,0.));
#477=DIRECTION('',(0.,0.,1.));
#478=DIRECTION('',(1.,0.,5.54284965201954E-17));
#479=DIRECTION('',(0.,0.,-1.));
#480=DIRECTION('',(-1.,0.,0.));
#481=DIRECTION('',(0.,0.,-1.));
#482=DIRECTION('',(-1.,0.,0.));
#483=DIRECTION('',(0.,0.,-1.));
#484=DIRECTION('',(-1.,0.,0.));
#485=DIRECTION('',(0.,0.,-1.));
#486=DIRECTION('',(-1.,0.,-1.03234164335354E-16));
#487=DIRECTION('',(0.,0.,1.));
#488=DIRECTION('',(-1.,0.,0.));
#489=DIRECTION('',(0.,0.,-1.));
#490=DIRECTION('',(-1.,0.,0.));
#491=DIRECTION('',(0.,0.,1.));
#492=DIRECTION('',(1.,0.,-1.36884733659155E-17));
#493=DIRECTION('',(0.,0.,-1.));
#494=DIRECTION('',(0.,-1.,0.));
#495=DIRECTION('',(0.,0.,-1.));
#496=DIRECTION('',(0.,-1.,0.));
#497=DIRECTION('',(-0.0537690068651096,0.,0.998553400625495));
#498=DIRECTION('',(0.,0.,1.));
#499=DIRECTION('',(0.,0.,-1.));
#500=DIRECTION('',(0.,-1.,0.));
#501=DIRECTION('',(0.,0.,1.));
#502=DIRECTION('',(0.,-1.,0.));
#503=DIRECTION('',(-0.707106781186548,0.,0.707106781186547));
#504=DIRECTION('',(0.,0.,1.));
#505=DIRECTION('',(0.,0.,1.));
#506=DIRECTION('',(0.,-1.,0.));
#507=DIRECTION('',(0.707106781186547,0.,0.707106781186548));
#508=DIRECTION('',(0.,0.,1.));
#509=DIRECTION('',(0.,0.,-1.));
#510=DIRECTION('',(0.,1.,7.28489464801227E-18));
#511=DIRECTION('',(0.,0.,-1.));
#512=DIRECTION('',(0.,1.,0.));
#513=DIRECTION('',(0.,0.,1.));
#514=DIRECTION('',(0.,-1.,0.));
#515=DIRECTION('',(0.,0.,1.));
#516=DIRECTION('',(0.,-1.,0.));
#517=DIRECTION('',(0.,0.,1.));
#518=DIRECTION('',(0.,-1.,0.));
#519=DIRECTION('',(0.,0.,-1.));
#520=DIRECTION('',(0.,1.,0.));
#521=DIRECTION('',(0.,0.,1.));
#522=DIRECTION('',(0.,-1.,0.));
#523=DIRECTION('',(0.,0.,-1.));
#524=DIRECTION('',(0.,1.,1.0548673206066E-15));
#525=DIRECTION('',(0.,0.,1.));
#526=DIRECTION('',(0.,-1.,0.));
#527=DIRECTION('',(0.,0.,1.));
#528=DIRECTION('',(0.,-1.,0.));
#529=DIRECTION('',(0.,0.,1.));
#530=DIRECTION('',(0.,-1.,0.));
#531=DIRECTION('',(0.,0.,1.));
#532=DIRECTION('',(0.,-1.,0.));
#533=DIRECTION('',(0.,0.,1.));
#534=DIRECTION('',(0.,-1.,0.));
#535=DIRECTION('',(0.,0.,-1.));
#536=DIRECTION('',(0.,1.,0.));
#537=DIRECTION('',(0.,0.,1.));
#538=DIRECTION('',(0.,-1.,0.));
#539=DIRECTION('',(0.,0.,-1.));
#540=DIRECTION('',(0.,1.,3.26644363444971E-15));
#541=DIRECTION('',(0.,0.,1.));
#542=DIRECTION('',(0.,-1.,0.));
#543=DIRECTION('',(0.,0.,1.));
#544=DIRECTION('',(0.,-1.,0.));
#545=DIRECTION('',(0.,0.,-1.));
#546=DIRECTION('',(0.,-1.,0.));
#547=DIRECTION('',(0.,0.,1.));
#548=DIRECTION('',(0.,-1.,0.));
#549=DIRECTION('',(0.,0.,1.));
#550=DIRECTION('',(0.,-1.,0.));
#551=DIRECTION('',(0.,0.,-1.));
#552=DIRECTION('',(0.,1.,4.1070828019437E-17));
#553=DIRECTION('',(0.,0.,-1.));
#554=DIRECTION('',(0.,1.,0.));
#555=DIRECTION('',(0.,0.,1.));
#556=DIRECTION('',(0.,-1.,0.));
#557=DIRECTION('',(0.,0.,1.));
#558=DIRECTION('',(0.,-1.,4.78943304299077E-17));
#559=DIRECTION('',(0.,0.,1.));
#560=DIRECTION('',(0.,1.,0.));
#561=DIRECTION('',(0.,0.,1.));
#562=DIRECTION('',(0.,-1.,-3.59662603103825E-17));
#563=DIRECTION('',(0.,0.,1.));
#564=DIRECTION('',(0.,1.,0.));
#565=DIRECTION('',(0.,0.,-1.));
#566=DIRECTION('',(0.,1.,0.));
#567=DIRECTION('',(0.,0.,-1.));
#568=DIRECTION('',(0.,1.,0.));
#569=DIRECTION('',(0.,0.,-1.));
#570=DIRECTION('',(0.,1.,0.));
#571=DIRECTION('',(0.,0.,-1.));
#572=DIRECTION('',(0.,1.,0.));
#573=DIRECTION('',(0.,0.,-1.));
#574=DIRECTION('',(0.,1.,0.));
#575=DIRECTION('',(0.,0.,1.));
#576=DIRECTION('',(0.,-1.,1.42677670389887E-16));
#577=DIRECTION('',(0.,0.,-1.));
#578=DIRECTION('',(0.,1.,0.));
#579=DIRECTION('',(0.,0.,1.));
#580=DIRECTION('',(0.,-1.,0.));
#581=DIRECTION('',(0.,0.,1.));
#582=DIRECTION('',(0.,-1.,0.));
#583=CARTESIAN_POINT('',(0.,0.,0.));
#584=CARTESIAN_POINT('',(0.,0.,-29.7656854249493));
#585=CARTESIAN_POINT('',(-7.09501649698558,0.,-29.7656854249493));
#586=CARTESIAN_POINT('',(0.,0.,-29.7656854249493));
#587=CARTESIAN_POINT('',(-8.22638734688404,0.,-29.7656854249493));
#588=CARTESIAN_POINT('',(0.,0.,-29.2));
#589=CARTESIAN_POINT('',(0.,0.,-24.1618641840459));
#590=CARTESIAN_POINT('',(-1.49119525608218,0.,-24.1618641840459));
#591=CARTESIAN_POINT('',(0.,0.,-29.7656854249493));
#592=CARTESIAN_POINT('',(0.,0.,-23.0304933341475));
#593=CARTESIAN_POINT('',(-1.49119525608212,0.,-23.0304933341475));
#594=CARTESIAN_POINT('',(0.,0.,-23.5961787590966));
#595=CARTESIAN_POINT('',(0.,0.,-17.426672093244));
#596=CARTESIAN_POINT('',(-7.09501649698556,0.,-17.426672093244));
#597=CARTESIAN_POINT('',(0.,0.,-23.0304933341475));
#598=CARTESIAN_POINT('',(0.,0.,-17.426672093244));
#599=CARTESIAN_POINT('',(-8.22638734688403,0.,-17.426672093244));
#600=CARTESIAN_POINT('',(0.,0.,-17.9923575181932));
#601=CARTESIAN_POINT('',(0.,0.,-23.0304933341474));
#602=CARTESIAN_POINT('',(-13.8302085877874,0.,-23.0304933341474));
#603=CARTESIAN_POINT('',(0.,0.,-17.426672093244));
#604=CARTESIAN_POINT('',(0.,0.,-24.1618641840459));
#605=CARTESIAN_POINT('',(-13.8302085877874,0.,-24.1618641840459));
#606=CARTESIAN_POINT('',(0.,0.,-23.5961787590966));
#607=CARTESIAN_POINT('',(0.,0.,-24.1618641840459));
#608=CARTESIAN_POINT('',(0.,0.,-17.6741095488026));
#609=CARTESIAN_POINT('',(0.,-7.75,-17.6741095488026));
#610=CARTESIAN_POINT('',(0.,0.,-17.6506178791362));
#611=CARTESIAN_POINT('',(0.,-7.7511535797564,-17.6506178791362));
#612=CARTESIAN_POINT('',(-7.06753846823631,-3.18,-17.6741095488026));
#613=CARTESIAN_POINT('',(0.,0.,-30.));
#614=CARTESIAN_POINT('',(0.,0.,-23.8112683664128));
#615=CARTESIAN_POINT('',(0.,-13.1643728278933,-23.8112683664128));
#616=CARTESIAN_POINT('',(0.,0.,-28.9945328045922));
#617=CARTESIAN_POINT('',(0.,-8.23040288935257,-28.9945328045922));
#618=CARTESIAN_POINT('',(-6.60189521155299,-3.18,-29.9838912260739));
#619=CARTESIAN_POINT('',(0.,0.,-30.));
#620=CARTESIAN_POINT('',(0.,0.,-23.3810891517804));
#621=CARTESIAN_POINT('',(0.,-13.1643728278933,-23.3810891517804));
#622=CARTESIAN_POINT('',(-12.9896076785303,-3.18,-23.5961787590966));
#623=CARTESIAN_POINT('',(0.,0.,-30.));
#624=CARTESIAN_POINT('',(5.96116660182339E-18,0.,-28.2744658555228));
#625=CARTESIAN_POINT('',(0.,0.,-28.2744658555228));
#626=CARTESIAN_POINT('',(0.,0.,63.5));
#627=CARTESIAN_POINT('',(0.,7.,63.5));
#628=CARTESIAN_POINT('',(0.,0.,59.));
#629=CARTESIAN_POINT('',(0.,-7.,59.));
#630=CARTESIAN_POINT('',(0.,0.,-30.));
#631=CARTESIAN_POINT('',(0.,0.,59.));
#632=CARTESIAN_POINT('',(0.,-7.41654164897679,59.));
#633=CARTESIAN_POINT('',(-7.41654164897679,0.,59.));
#634=CARTESIAN_POINT('',(0.,0.,39.));
#635=CARTESIAN_POINT('',(0.,-7.9160190561033,39.));
#636=CARTESIAN_POINT('',(0.,0.,39.));
#637=CARTESIAN_POINT('',(0.,0.,39.));
#638=CARTESIAN_POINT('',(0.,-7.65,39.));
#639=CARTESIAN_POINT('',(-7.65,0.,39.));
#640=CARTESIAN_POINT('',(0.,0.,29.));
#641=CARTESIAN_POINT('',(0.,-7.65,29.));
#642=CARTESIAN_POINT('',(0.,0.,-30.));
#643=CARTESIAN_POINT('',(0.,0.,29.));
#644=CARTESIAN_POINT('',(0.,-8.16575775966656,29.));
#645=CARTESIAN_POINT('',(-8.16575775966656,0.,29.));
#646=CARTESIAN_POINT('',(0.,0.,-5.));
#647=CARTESIAN_POINT('',(0.,-9.01486935178163,-5.));
#648=CARTESIAN_POINT('',(0.,0.,-5.));
#649=CARTESIAN_POINT('',(0.,0.,-5.));
#650=CARTESIAN_POINT('',(0.,-8.55,-5.));
#651=CARTESIAN_POINT('',(-7.75,0.,-5.));
#652=CARTESIAN_POINT('',(0.,0.,-5.8));
#653=CARTESIAN_POINT('',(0.,-7.75,-5.8));
#654=CARTESIAN_POINT('',(0.,0.,-17.6494642993798));
#655=CARTESIAN_POINT('',(0.,-7.75,-17.6494642993798));
#656=CARTESIAN_POINT('',(0.,0.,-30.));
#657=CARTESIAN_POINT('',(0.,0.,-23.5961787590966));
#658=CARTESIAN_POINT('',(3.46944695195361E-15,-8.67361737988404E-16,64.));
#659=CARTESIAN_POINT('',(3.46944695195361E-15,6.5,64.));
#660=CARTESIAN_POINT('',(3.46944695195361E-15,-8.67361737988404E-16,63.7834936490539));
#661=CARTESIAN_POINT('',(3.46944695195361E-15,-6.12500000000001,63.7834936490539));
#662=CARTESIAN_POINT('',(3.46944695195361E-15,-8.67361737988404E-16,64.));
#663=CARTESIAN_POINT('',(0.,0.,25.));
#664=CARTESIAN_POINT('',(0.,4.3,25.));
#665=CARTESIAN_POINT('',(0.,0.,22.5173938424846));
#666=CARTESIAN_POINT('',(0.,0.,25.));
#667=CARTESIAN_POINT('',(0.,0.,57.));
#668=CARTESIAN_POINT('',(0.,4.3,57.));
#669=CARTESIAN_POINT('',(0.,0.,25.));
#670=CARTESIAN_POINT('',(0.,0.,57.));
#671=CARTESIAN_POINT('',(0.,5.25,57.));
#672=CARTESIAN_POINT('',(0.,0.,57.));
#673=CARTESIAN_POINT('',(0.,0.,62.2679491924311));
#674=CARTESIAN_POINT('',(0.,5.25,62.2679491924311));
#675=CARTESIAN_POINT('',(0.,0.,64.));
#676=CARTESIAN_POINT('',(0.,0.,64.));
#677=CARTESIAN_POINT('',(0.,0.,63.5));
#678=CARTESIAN_POINT('',(0.,0.,-5.8));
#679=CARTESIAN_POINT('',(0.,0.,-23.3810891517804));
#680=MECHANICAL_DESIGN_GEOMETRIC_PRESENTATION_REPRESENTATION('',(#58,#59),
#681);
#681=(
GEOMETRIC_REPRESENTATION_CONTEXT(3)
GLOBAL_UNCERTAINTY_ASSIGNED_CONTEXT((#682))
GLOBAL_UNIT_ASSIGNED_CONTEXT((#688,#684,#683))
REPRESENTATION_CONTEXT('16N2R030E02_SSD09_A_SIM',
'TOP_LEVEL_ASSEMBLY_PART')
);
#682=UNCERTAINTY_MEASURE_WITH_UNIT(LENGTH_MEASURE(2.E-5),#688,
'DISTANCE_ACCURACY_VALUE','Maximum Tolerance applied to model');
#683=(
NAMED_UNIT(*)
SI_UNIT($,.STERADIAN.)
SOLID_ANGLE_UNIT()
);
#684=(
CONVERSION_BASED_UNIT('DEGREE',#686)
NAMED_UNIT(#685)
PLANE_ANGLE_UNIT()
);
#685=DIMENSIONAL_EXPONENTS(0.,0.,0.,0.,0.,0.,0.);
#686=PLANE_ANGLE_MEASURE_WITH_UNIT(PLANE_ANGLE_MEASURE(0.0174532925),#687);
#687=(
NAMED_UNIT(*)
PLANE_ANGLE_UNIT()
SI_UNIT($,.RADIAN.)
);
#688=(
LENGTH_UNIT()
NAMED_UNIT(*)
SI_UNIT(.MILLI.,.METRE.)
);
ENDSEC;
END-ISO-10303-21;
