ISO-10303-21;
HEADER;
/* Generated by software containing ST-Developer
 * from STEP Tools, Inc. (www.steptools.com) 
 */
/* OPTION: using custom schema-name function */

FILE_DESCRIPTION(
/* description */ (''),
/* implementation_level */ '2;1');

FILE_NAME(
/* name */ '16N2R027B16-SSD09-A.stp',
/* time_stamp */ '2020-02-07T07:42:38+01:00',
/* author */ (''),
/* organization */ (''),
/* preprocessor_version */ 'ST-DEVELOPER v16.7',
/* originating_system */ 'SIEMENS PLM Software NX 12.0',
/* authorisation */ '');

FILE_SCHEMA (('AUTOMOTIVE_DESIGN { 1 0 10303 214 3 1 1 1 }'));
ENDSEC;

DATA;
#10=PROPERTY_DEFINITION_REPRESENTATION(#14,#12);
#11=PROPERTY_DEFINITION_REPRESENTATION(#15,#13);
#12=REPRESENTATION('',(#16),#636);
#13=REPRESENTATION('',(#17),#636);
#14=PROPERTY_DEFINITION('pmi validation property','',#21);
#15=PROPERTY_DEFINITION('pmi validation property','',#21);
#16=VALUE_REPRESENTATION_ITEM('number of annotations',COUNT_MEASURE(0.));
#17=VALUE_REPRESENTATION_ITEM('number of views',COUNT_MEASURE(0.));
#18=SHAPE_REPRESENTATION_RELATIONSHIP('None',
'relationship between pp07321CEE9Ebelz-None and pp07321CEE9Ebelz-None',
#30,#19);
#19=ADVANCED_BREP_SHAPE_REPRESENTATION('pp07321CEE9Ebelz-None',(#78,#79),
#636);
#20=SHAPE_DEFINITION_REPRESENTATION(#21,#30);
#21=PRODUCT_DEFINITION_SHAPE('','',#22);
#22=PRODUCT_DEFINITION(' ','',#24,#23);
#23=PRODUCT_DEFINITION_CONTEXT('part definition',#29,'design');
#24=PRODUCT_DEFINITION_FORMATION_WITH_SPECIFIED_SOURCE(' ',' ',#26,
 .NOT_KNOWN.);
#25=PRODUCT_RELATED_PRODUCT_CATEGORY('part','',(#26));
#26=PRODUCT('pp07321CEE9Ebelz','pp07321CEE9Ebelz',' ',(#27));
#27=PRODUCT_CONTEXT(' ',#29,'mechanical');
#28=APPLICATION_PROTOCOL_DEFINITION('international standard',
'automotive_design',2010,#29);
#29=APPLICATION_CONTEXT(
'core data for automotive mechanical design processes');
#30=SHAPE_REPRESENTATION('pp07321CEE9Ebelz-None',(#349),#636);
#31=TOROIDAL_SURFACE('',#386,8.55,0.8);
#32=VERTEX_LOOP('',#300);
#33=PLANE('',#368);
#34=PLANE('',#388);
#35=PLANE('',#389);
#36=PLANE('',#390);
#37=FACE_OUTER_BOUND('',#194,.T.);
#38=FACE_OUTER_BOUND('',#216,.T.);
#39=FACE_OUTER_BOUND('',#217,.T.);
#40=FACE_OUTER_BOUND('',#218,.T.);
#41=CYLINDRICAL_SURFACE('',#366,8.);
#42=CYLINDRICAL_SURFACE('',#371,7.9);
#43=CYLINDRICAL_SURFACE('',#375,7.);
#44=CYLINDRICAL_SURFACE('',#381,7.75);
#45=CYLINDRICAL_SURFACE('',#387,13.1643728278933);
#46=LINE('',#586,#52);
#47=LINE('',#590,#53);
#48=LINE('',#619,#54);
#49=LINE('',#623,#55);
#50=LINE('',#629,#56);
#51=LINE('',#631,#57);
#52=VECTOR('',#428,1.);
#53=VECTOR('',#431,1.);
#54=VECTOR('',#468,8.72940696354694);
#55=VECTOR('',#472,8.37507059450989);
#56=VECTOR('',#480,1.);
#57=VECTOR('',#483,1.);
#58=ELLIPSE('',#364,11.4137455551987,8.);
#59=ELLIPSE('',#365,11.4137455551987,8.);
#60=PRESENTATION_LAYER_ASSIGNMENT('96','Layer 96',(#78));
#61=PRESENTATION_LAYER_ASSIGNMENT('14','Layer 14',(#79));
#62=STYLED_ITEM('',(#64),#78);
#63=STYLED_ITEM('',(#65),#79);
#64=PRESENTATION_STYLE_ASSIGNMENT((#66));
#65=PRESENTATION_STYLE_ASSIGNMENT((#67));
#66=SURFACE_STYLE_USAGE(.BOTH.,#68);
#67=SURFACE_STYLE_USAGE(.BOTH.,#69);
#68=SURFACE_SIDE_STYLE('',(#70));
#69=SURFACE_SIDE_STYLE('',(#71));
#70=SURFACE_STYLE_FILL_AREA(#72);
#71=SURFACE_STYLE_FILL_AREA(#73);
#72=FILL_AREA_STYLE('',(#74));
#73=FILL_AREA_STYLE('',(#75));
#74=FILL_AREA_STYLE_COLOUR('',#76);
#75=FILL_AREA_STYLE_COLOUR('',#77);
#76=COLOUR_RGB('Light Gray',0.8,0.8,0.8);
#77=COLOUR_RGB('Silver Gray',0.6,0.6,0.6);
#78=MANIFOLD_SOLID_BREP('',#80);
#79=MANIFOLD_SOLID_BREP('',#81);
#80=CLOSED_SHELL('',(#91,#92,#93,#94,#95,#96,#97,#98));
#81=CLOSED_SHELL('',(#99,#100,#101,#102,#103,#104,#105,#106,#107,#108,#109,
#110,#111,#112,#113,#114,#115));
#82=CONICAL_SURFACE('',#353,7.13693626547018,45.);
#83=CONICAL_SURFACE('',#356,1.46512994389172,45.);
#84=CONICAL_SURFACE('',#359,8.20032203469359,45.);
#85=CONICAL_SURFACE('',#361,13.872128356272,45.);
#86=CONICAL_SURFACE('',#373,7.,30.);
#87=CONICAL_SURFACE('',#377,7.5,59.9999999999966);
#88=CONICAL_SURFACE('',#378,8.,45.);
#89=CONICAL_SURFACE('',#385,6.47941686337288E-18,85.);
#90=CONICAL_SURFACE('',#391,6.9,45.);
#91=ADVANCED_FACE('',(#132,#133),#116,.T.);
#92=ADVANCED_FACE('',(#134,#135),#82,.F.);
#93=ADVANCED_FACE('',(#136,#137),#117,.T.);
#94=ADVANCED_FACE('',(#138,#139),#83,.F.);
#95=ADVANCED_FACE('',(#140,#141),#118,.T.);
#96=ADVANCED_FACE('',(#142,#143),#84,.T.);
#97=ADVANCED_FACE('',(#144,#145),#119,.T.);
#98=ADVANCED_FACE('',(#146,#147),#85,.T.);
#99=ADVANCED_FACE('',(#148,#149,#150),#41,.T.);
#100=ADVANCED_FACE('',(#37),#33,.F.);
#101=ADVANCED_FACE('',(#151,#152),#42,.T.);
#102=ADVANCED_FACE('',(#153,#154),#86,.T.);
#103=ADVANCED_FACE('',(#155,#156),#43,.T.);
#104=ADVANCED_FACE('',(#157,#158),#87,.T.);
#105=ADVANCED_FACE('',(#159,#160),#88,.T.);
#106=ADVANCED_FACE('',(#161,#162),#44,.T.);
#107=ADVANCED_FACE('',(#163,#164),#120,.T.);
#108=ADVANCED_FACE('',(#165,#166),#121,.T.);
#109=ADVANCED_FACE('',(#167,#168),#89,.F.);
#110=ADVANCED_FACE('',(#169,#170),#31,.F.);
#111=ADVANCED_FACE('',(#171,#172),#45,.T.);
#112=ADVANCED_FACE('',(#38),#34,.T.);
#113=ADVANCED_FACE('',(#39),#35,.T.);
#114=ADVANCED_FACE('',(#40),#36,.T.);
#115=ADVANCED_FACE('',(#173,#174),#90,.T.);
#116=SURFACE_OF_REVOLUTION('',#128,#122);
#117=SURFACE_OF_REVOLUTION('',#129,#123);
#118=SURFACE_OF_REVOLUTION('',#130,#124);
#119=SURFACE_OF_REVOLUTION('',#131,#125);
#120=SURFACE_OF_REVOLUTION('',#48,#126);
#121=SURFACE_OF_REVOLUTION('',#49,#127);
#122=AXIS1_PLACEMENT('',#511,#398);
#123=AXIS1_PLACEMENT('',#533,#405);
#124=AXIS1_PLACEMENT('',#555,#412);
#125=AXIS1_PLACEMENT('',#577,#419);
#126=AXIS1_PLACEMENT('',#620,#469);
#127=AXIS1_PLACEMENT('',#624,#473);
#128=B_SPLINE_CURVE_WITH_KNOTS('',3,(#495,#496,#497,#498,#499,#500,#501,
#502,#503,#504,#505,#506,#507,#508,#509,#510),.UNSPECIFIED.,.F.,.F.,(4,
3,3,3,3,4),(0.,0.139625312225804,0.353401439692075,0.567712102478455,0.783776616869832,
1.),.UNSPECIFIED.);
#129=B_SPLINE_CURVE_WITH_KNOTS('',3,(#517,#518,#519,#520,#521,#522,#523,
#524,#525,#526,#527,#528,#529,#530,#531,#532),.UNSPECIFIED.,.F.,.F.,(4,
3,3,3,3,4),(0.,0.139625312225805,0.353401439692075,0.567712102478456,0.783776616869833,
1.),.UNSPECIFIED.);
#130=B_SPLINE_CURVE_WITH_KNOTS('',3,(#539,#540,#541,#542,#543,#544,#545,
#546,#547,#548,#549,#550,#551,#552,#553,#554),.UNSPECIFIED.,.F.,.F.,(4,
3,3,3,3,4),(0.,0.139625312225806,0.353401439692077,0.567712102478456,0.783776616869834,
1.),.UNSPECIFIED.);
#131=B_SPLINE_CURVE_WITH_KNOTS('',3,(#561,#562,#563,#564,#565,#566,#567,
#568,#569,#570,#571,#572,#573,#574,#575,#576),.UNSPECIFIED.,.F.,.F.,(4,
3,3,3,3,4),(0.,0.139625312225804,0.353401439692075,0.567712102478457,0.783776616869834,
1.),.UNSPECIFIED.);
#132=FACE_BOUND('',#175,.T.);
#133=FACE_BOUND('',#176,.T.);
#134=FACE_BOUND('',#177,.T.);
#135=FACE_BOUND('',#178,.T.);
#136=FACE_BOUND('',#179,.T.);
#137=FACE_BOUND('',#180,.T.);
#138=FACE_BOUND('',#181,.T.);
#139=FACE_BOUND('',#182,.T.);
#140=FACE_BOUND('',#183,.T.);
#141=FACE_BOUND('',#184,.T.);
#142=FACE_BOUND('',#185,.T.);
#143=FACE_BOUND('',#186,.T.);
#144=FACE_BOUND('',#187,.T.);
#145=FACE_BOUND('',#188,.T.);
#146=FACE_BOUND('',#189,.T.);
#147=FACE_BOUND('',#190,.T.);
#148=FACE_BOUND('',#191,.T.);
#149=FACE_BOUND('',#192,.T.);
#150=FACE_BOUND('',#193,.T.);
#151=FACE_BOUND('',#195,.T.);
#152=FACE_BOUND('',#196,.T.);
#153=FACE_BOUND('',#197,.T.);
#154=FACE_BOUND('',#198,.T.);
#155=FACE_BOUND('',#199,.T.);
#156=FACE_BOUND('',#200,.T.);
#157=FACE_BOUND('',#201,.T.);
#158=FACE_BOUND('',#202,.T.);
#159=FACE_BOUND('',#203,.T.);
#160=FACE_BOUND('',#204,.T.);
#161=FACE_BOUND('',#205,.T.);
#162=FACE_BOUND('',#206,.T.);
#163=FACE_BOUND('',#207,.T.);
#164=FACE_BOUND('',#208,.T.);
#165=FACE_BOUND('',#209,.T.);
#166=FACE_BOUND('',#210,.T.);
#167=FACE_BOUND('',#211,.T.);
#168=FACE_BOUND('',#32,.T.);
#169=FACE_BOUND('',#212,.T.);
#170=FACE_BOUND('',#213,.T.);
#171=FACE_BOUND('',#214,.T.);
#172=FACE_BOUND('',#215,.T.);
#173=FACE_BOUND('',#219,.T.);
#174=FACE_BOUND('',#220,.T.);
#175=EDGE_LOOP('',(#221));
#176=EDGE_LOOP('',(#222));
#177=EDGE_LOOP('',(#223));
#178=EDGE_LOOP('',(#224));
#179=EDGE_LOOP('',(#225));
#180=EDGE_LOOP('',(#226));
#181=EDGE_LOOP('',(#227));
#182=EDGE_LOOP('',(#228));
#183=EDGE_LOOP('',(#229));
#184=EDGE_LOOP('',(#230));
#185=EDGE_LOOP('',(#231));
#186=EDGE_LOOP('',(#232));
#187=EDGE_LOOP('',(#233));
#188=EDGE_LOOP('',(#234));
#189=EDGE_LOOP('',(#235));
#190=EDGE_LOOP('',(#236));
#191=EDGE_LOOP('',(#237));
#192=EDGE_LOOP('',(#238));
#193=EDGE_LOOP('',(#239,#240,#241,#242));
#194=EDGE_LOOP('',(#243));
#195=EDGE_LOOP('',(#244));
#196=EDGE_LOOP('',(#245));
#197=EDGE_LOOP('',(#246));
#198=EDGE_LOOP('',(#247));
#199=EDGE_LOOP('',(#248));
#200=EDGE_LOOP('',(#249));
#201=EDGE_LOOP('',(#250));
#202=EDGE_LOOP('',(#251));
#203=EDGE_LOOP('',(#252));
#204=EDGE_LOOP('',(#253));
#205=EDGE_LOOP('',(#254));
#206=EDGE_LOOP('',(#255));
#207=EDGE_LOOP('',(#256));
#208=EDGE_LOOP('',(#257));
#209=EDGE_LOOP('',(#258));
#210=EDGE_LOOP('',(#259));
#211=EDGE_LOOP('',(#260));
#212=EDGE_LOOP('',(#261));
#213=EDGE_LOOP('',(#262));
#214=EDGE_LOOP('',(#263));
#215=EDGE_LOOP('',(#264));
#216=EDGE_LOOP('',(#265,#266));
#217=EDGE_LOOP('',(#267,#268,#269,#270));
#218=EDGE_LOOP('',(#271,#272));
#219=EDGE_LOOP('',(#273));
#220=EDGE_LOOP('',(#274));
#221=ORIENTED_EDGE('',*,*,#301,.F.);
#222=ORIENTED_EDGE('',*,*,#302,.T.);
#223=ORIENTED_EDGE('',*,*,#303,.F.);
#224=ORIENTED_EDGE('',*,*,#301,.T.);
#225=ORIENTED_EDGE('',*,*,#304,.F.);
#226=ORIENTED_EDGE('',*,*,#303,.T.);
#227=ORIENTED_EDGE('',*,*,#305,.F.);
#228=ORIENTED_EDGE('',*,*,#304,.T.);
#229=ORIENTED_EDGE('',*,*,#306,.F.);
#230=ORIENTED_EDGE('',*,*,#305,.T.);
#231=ORIENTED_EDGE('',*,*,#307,.F.);
#232=ORIENTED_EDGE('',*,*,#306,.T.);
#233=ORIENTED_EDGE('',*,*,#308,.F.);
#234=ORIENTED_EDGE('',*,*,#307,.T.);
#235=ORIENTED_EDGE('',*,*,#302,.F.);
#236=ORIENTED_EDGE('',*,*,#308,.T.);
#237=ORIENTED_EDGE('',*,*,#309,.T.);
#238=ORIENTED_EDGE('',*,*,#310,.F.);
#239=ORIENTED_EDGE('',*,*,#311,.F.);
#240=ORIENTED_EDGE('',*,*,#312,.F.);
#241=ORIENTED_EDGE('',*,*,#313,.F.);
#242=ORIENTED_EDGE('',*,*,#314,.F.);
#243=ORIENTED_EDGE('',*,*,#315,.T.);
#244=ORIENTED_EDGE('',*,*,#316,.T.);
#245=ORIENTED_EDGE('',*,*,#317,.T.);
#246=ORIENTED_EDGE('',*,*,#317,.F.);
#247=ORIENTED_EDGE('',*,*,#318,.T.);
#248=ORIENTED_EDGE('',*,*,#318,.F.);
#249=ORIENTED_EDGE('',*,*,#319,.T.);
#250=ORIENTED_EDGE('',*,*,#319,.F.);
#251=ORIENTED_EDGE('',*,*,#320,.T.);
#252=ORIENTED_EDGE('',*,*,#320,.F.);
#253=ORIENTED_EDGE('',*,*,#310,.T.);
#254=ORIENTED_EDGE('',*,*,#321,.T.);
#255=ORIENTED_EDGE('',*,*,#322,.T.);
#256=ORIENTED_EDGE('',*,*,#323,.T.);
#257=ORIENTED_EDGE('',*,*,#324,.F.);
#258=ORIENTED_EDGE('',*,*,#325,.T.);
#259=ORIENTED_EDGE('',*,*,#322,.F.);
#260=ORIENTED_EDGE('',*,*,#324,.T.);
#261=ORIENTED_EDGE('',*,*,#321,.F.);
#262=ORIENTED_EDGE('',*,*,#309,.F.);
#263=ORIENTED_EDGE('',*,*,#323,.F.);
#264=ORIENTED_EDGE('',*,*,#325,.F.);
#265=ORIENTED_EDGE('',*,*,#311,.T.);
#266=ORIENTED_EDGE('',*,*,#326,.T.);
#267=ORIENTED_EDGE('',*,*,#314,.T.);
#268=ORIENTED_EDGE('',*,*,#327,.T.);
#269=ORIENTED_EDGE('',*,*,#312,.T.);
#270=ORIENTED_EDGE('',*,*,#326,.F.);
#271=ORIENTED_EDGE('',*,*,#313,.T.);
#272=ORIENTED_EDGE('',*,*,#327,.F.);
#273=ORIENTED_EDGE('',*,*,#316,.F.);
#274=ORIENTED_EDGE('',*,*,#315,.F.);
#275=VERTEX_POINT('',#492);
#276=VERTEX_POINT('',#494);
#277=VERTEX_POINT('',#513);
#278=VERTEX_POINT('',#516);
#279=VERTEX_POINT('',#535);
#280=VERTEX_POINT('',#538);
#281=VERTEX_POINT('',#557);
#282=VERTEX_POINT('',#560);
#283=VERTEX_POINT('',#580);
#284=VERTEX_POINT('',#582);
#285=VERTEX_POINT('',#584);
#286=VERTEX_POINT('',#585);
#287=VERTEX_POINT('',#587);
#288=VERTEX_POINT('',#589);
#289=VERTEX_POINT('',#593);
#290=VERTEX_POINT('',#596);
#291=VERTEX_POINT('',#598);
#292=VERTEX_POINT('',#601);
#293=VERTEX_POINT('',#604);
#294=VERTEX_POINT('',#607);
#295=VERTEX_POINT('',#611);
#296=VERTEX_POINT('',#613);
#297=VERTEX_POINT('',#616);
#298=VERTEX_POINT('',#618);
#299=VERTEX_POINT('',#622);
#300=VERTEX_POINT('',#625);
#301=EDGE_CURVE('',#275,#275,#328,.T.);
#302=EDGE_CURVE('',#276,#276,#329,.T.);
#303=EDGE_CURVE('',#277,#277,#330,.T.);
#304=EDGE_CURVE('',#278,#278,#331,.T.);
#305=EDGE_CURVE('',#279,#279,#332,.T.);
#306=EDGE_CURVE('',#280,#280,#333,.T.);
#307=EDGE_CURVE('',#281,#281,#334,.T.);
#308=EDGE_CURVE('',#282,#282,#335,.T.);
#309=EDGE_CURVE('',#283,#283,#336,.T.);
#310=EDGE_CURVE('',#284,#284,#337,.T.);
#311=EDGE_CURVE('',#285,#286,#58,.T.);
#312=EDGE_CURVE('',#287,#285,#46,.T.);
#313=EDGE_CURVE('',#288,#287,#59,.T.);
#314=EDGE_CURVE('',#286,#288,#47,.T.);
#315=EDGE_CURVE('',#289,#289,#338,.T.);
#316=EDGE_CURVE('',#290,#290,#339,.T.);
#317=EDGE_CURVE('',#291,#291,#340,.T.);
#318=EDGE_CURVE('',#292,#292,#341,.T.);
#319=EDGE_CURVE('',#293,#293,#342,.T.);
#320=EDGE_CURVE('',#294,#294,#343,.T.);
#321=EDGE_CURVE('',#295,#295,#344,.T.);
#322=EDGE_CURVE('',#296,#296,#345,.T.);
#323=EDGE_CURVE('',#297,#297,#346,.T.);
#324=EDGE_CURVE('',#298,#298,#347,.T.);
#325=EDGE_CURVE('',#299,#299,#348,.T.);
#326=EDGE_CURVE('',#286,#285,#50,.T.);
#327=EDGE_CURVE('',#288,#287,#51,.T.);
#328=CIRCLE('',#350,7.13693626547018);
#329=CIRCLE('',#351,8.2003220346936);
#330=CIRCLE('',#352,1.46512994389172);
#331=CIRCLE('',#354,1.46512994389172);
#332=CIRCLE('',#355,7.13693626547018);
#333=CIRCLE('',#357,8.20032203469359);
#334=CIRCLE('',#358,13.872128356272);
#335=CIRCLE('',#360,13.872128356272);
#336=CIRCLE('',#362,8.);
#337=CIRCLE('',#363,8.);
#338=CIRCLE('',#367,6.9);
#339=CIRCLE('',#369,7.9);
#340=CIRCLE('',#370,7.9);
#341=CIRCLE('',#372,7.);
#342=CIRCLE('',#374,7.);
#343=CIRCLE('',#376,7.5);
#344=CIRCLE('',#379,7.75);
#345=CIRCLE('',#380,7.75);
#346=CIRCLE('',#382,13.1643728278933);
#347=CIRCLE('',#383,8.23040288935257);
#348=CIRCLE('',#384,13.1643728278933);
#349=AXIS2_PLACEMENT_3D('',#490,#392,#393);
#350=AXIS2_PLACEMENT_3D('',#491,#394,#395);
#351=AXIS2_PLACEMENT_3D('',#493,#396,#397);
#352=AXIS2_PLACEMENT_3D('',#512,#399,#400);
#353=AXIS2_PLACEMENT_3D('',#514,#401,#402);
#354=AXIS2_PLACEMENT_3D('',#515,#403,#404);
#355=AXIS2_PLACEMENT_3D('',#534,#406,#407);
#356=AXIS2_PLACEMENT_3D('',#536,#408,#409);
#357=AXIS2_PLACEMENT_3D('',#537,#410,#411);
#358=AXIS2_PLACEMENT_3D('',#556,#413,#414);
#359=AXIS2_PLACEMENT_3D('',#558,#415,#416);
#360=AXIS2_PLACEMENT_3D('',#559,#417,#418);
#361=AXIS2_PLACEMENT_3D('',#578,#420,#421);
#362=AXIS2_PLACEMENT_3D('',#579,#422,#423);
#363=AXIS2_PLACEMENT_3D('',#581,#424,#425);
#364=AXIS2_PLACEMENT_3D('',#583,#426,#427);
#365=AXIS2_PLACEMENT_3D('',#588,#429,#430);
#366=AXIS2_PLACEMENT_3D('',#591,#432,#433);
#367=AXIS2_PLACEMENT_3D('',#592,#434,#435);
#368=AXIS2_PLACEMENT_3D('',#594,#436,#437);
#369=AXIS2_PLACEMENT_3D('',#595,#438,#439);
#370=AXIS2_PLACEMENT_3D('',#597,#440,#441);
#371=AXIS2_PLACEMENT_3D('',#599,#442,#443);
#372=AXIS2_PLACEMENT_3D('',#600,#444,#445);
#373=AXIS2_PLACEMENT_3D('',#602,#446,#447);
#374=AXIS2_PLACEMENT_3D('',#603,#448,#449);
#375=AXIS2_PLACEMENT_3D('',#605,#450,#451);
#376=AXIS2_PLACEMENT_3D('',#606,#452,#453);
#377=AXIS2_PLACEMENT_3D('',#608,#454,#455);
#378=AXIS2_PLACEMENT_3D('',#609,#456,#457);
#379=AXIS2_PLACEMENT_3D('',#610,#458,#459);
#380=AXIS2_PLACEMENT_3D('',#612,#460,#461);
#381=AXIS2_PLACEMENT_3D('',#614,#462,#463);
#382=AXIS2_PLACEMENT_3D('',#615,#464,#465);
#383=AXIS2_PLACEMENT_3D('',#617,#466,#467);
#384=AXIS2_PLACEMENT_3D('',#621,#470,#471);
#385=AXIS2_PLACEMENT_3D('',#626,#474,#475);
#386=AXIS2_PLACEMENT_3D('',#627,#476,#477);
#387=AXIS2_PLACEMENT_3D('',#628,#478,#479);
#388=AXIS2_PLACEMENT_3D('',#630,#481,#482);
#389=AXIS2_PLACEMENT_3D('',#632,#484,#485);
#390=AXIS2_PLACEMENT_3D('',#633,#486,#487);
#391=AXIS2_PLACEMENT_3D('',#634,#488,#489);
#392=DIRECTION('',(0.,0.,1.));
#393=DIRECTION('',(1.,0.,0.));
#394=DIRECTION('',(-1.,0.,0.));
#395=DIRECTION('',(0.,0.,1.));
#396=DIRECTION('',(-1.,0.,0.));
#397=DIRECTION('',(0.,0.,1.));
#398=DIRECTION('',(-1.,0.,0.));
#399=DIRECTION('',(-1.,0.,0.));
#400=DIRECTION('',(0.,0.,1.));
#401=DIRECTION('',(-1.,0.,0.));
#402=DIRECTION('',(-5.2211177519247E-18,0.,1.));
#403=DIRECTION('',(-1.,0.,0.));
#404=DIRECTION('',(0.,0.,1.));
#405=DIRECTION('',(-1.,0.,0.));
#406=DIRECTION('',(-1.,0.,0.));
#407=DIRECTION('',(0.,0.,1.));
#408=DIRECTION('',(1.,0.,0.));
#409=DIRECTION('',(9.52702079443043E-17,0.,-1.));
#410=DIRECTION('',(-1.,0.,0.));
#411=DIRECTION('',(0.,0.,1.));
#412=DIRECTION('',(-1.,0.,0.));
#413=DIRECTION('',(-1.,0.,0.));
#414=DIRECTION('',(0.,0.,1.));
#415=DIRECTION('',(-1.,0.,0.));
#416=DIRECTION('',(4.12947333119487E-17,0.,1.));
#417=DIRECTION('',(-1.,0.,0.));
#418=DIRECTION('',(0.,0.,1.));
#419=DIRECTION('',(-1.,0.,0.));
#420=DIRECTION('',(1.,0.,0.));
#421=DIRECTION('',(3.42197684986016E-17,0.,-1.));
#422=DIRECTION('',(1.,0.,0.));
#423=DIRECTION('',(0.,0.,-1.));
#424=DIRECTION('',(1.,0.,0.));
#425=DIRECTION('',(0.,0.,-1.));
#426=DIRECTION('',(0.700909264299852,0.,0.713250449154183));
#427=DIRECTION('',(0.713250449154182,0.,-0.700909264299851));
#428=DIRECTION('',(-1.,0.,0.));
#429=DIRECTION('',(-0.700909264299851,0.,0.713250449154181));
#430=DIRECTION('',(0.713250449154181,0.,0.700909264299851));
#431=DIRECTION('',(1.,0.,0.));
#432=DIRECTION('',(1.,0.,0.));
#433=DIRECTION('',(0.,0.,-1.));
#434=DIRECTION('',(1.,0.,0.));
#435=DIRECTION('',(0.,0.,1.));
#436=DIRECTION('',(-1.,0.,0.));
#437=DIRECTION('',(0.,0.,1.));
#438=DIRECTION('',(-1.,0.,0.));
#439=DIRECTION('',(0.,0.,1.));
#440=DIRECTION('',(1.,0.,0.));
#441=DIRECTION('',(0.,0.,-1.));
#442=DIRECTION('',(1.,0.,0.));
#443=DIRECTION('',(0.,0.,-1.));
#444=DIRECTION('',(1.,0.,0.));
#445=DIRECTION('',(0.,0.,-1.));
#446=DIRECTION('',(1.,0.,0.));
#447=DIRECTION('',(-2.37490911522298E-17,0.,-1.));
#448=DIRECTION('',(1.,0.,0.));
#449=DIRECTION('',(0.,0.,-1.));
#450=DIRECTION('',(1.,0.,0.));
#451=DIRECTION('',(0.,0.,-1.));
#452=DIRECTION('',(1.,0.,0.));
#453=DIRECTION('',(0.,0.,-1.));
#454=DIRECTION('',(-1.,0.,0.));
#455=DIRECTION('',(7.97779964082299E-18,0.,1.));
#456=DIRECTION('',(-1.,0.,0.));
#457=DIRECTION('',(5.50705865389462E-17,0.,1.));
#458=DIRECTION('',(-1.,0.,0.));
#459=DIRECTION('',(0.,0.,-1.));
#460=DIRECTION('',(1.,0.,0.));
#461=DIRECTION('',(0.,0.,-1.));
#462=DIRECTION('',(1.,0.,0.));
#463=DIRECTION('',(0.,0.,-1.));
#464=DIRECTION('',(-1.,0.,0.));
#465=DIRECTION('',(0.,0.,-1.));
#466=DIRECTION('',(-1.,0.,0.));
#467=DIRECTION('',(0.,0.,-1.));
#468=DIRECTION('',(0.707106781186547,-0.707106781186548,0.));
#469=DIRECTION('',(1.,0.,0.));
#470=DIRECTION('',(1.,0.,0.));
#471=DIRECTION('',(0.,0.,-1.));
#472=DIRECTION('',(0.707106781186548,0.707106781186547,0.));
#473=DIRECTION('',(1.,0.,0.));
#474=DIRECTION('',(-1.,0.,0.));
#475=DIRECTION('',(-3.41479436625575E-19,0.,1.));
#476=DIRECTION('',(1.,0.,0.));
#477=DIRECTION('',(0.,0.,-1.));
#478=DIRECTION('',(1.,0.,0.));
#479=DIRECTION('',(0.,0.,-1.));
#480=DIRECTION('',(0.,1.,0.));
#481=DIRECTION('',(0.700909264299851,0.,0.713250449154182));
#482=DIRECTION('',(0.713250449154182,0.,-0.700909264299851));
#483=DIRECTION('',(0.,1.,0.));
#484=DIRECTION('',(8.67361737988404E-17,0.,1.));
#485=DIRECTION('',(1.,0.,-8.67361737988404E-17));
#486=DIRECTION('',(-0.700909264299851,0.,0.713250449154181));
#487=DIRECTION('',(0.713250449154181,0.,0.700909264299851));
#488=DIRECTION('',(-1.,0.,0.));
#489=DIRECTION('',(-4.13480617970438E-17,0.,1.));
#490=CARTESIAN_POINT('',(0.,0.,0.));
#491=CARTESIAN_POINT('',(0.200322034732752,0.,0.));
#492=CARTESIAN_POINT('',(0.200322034732752,0.,7.13693626547018));
#493=CARTESIAN_POINT('',(0.200322034732751,0.,0.));
#494=CARTESIAN_POINT('',(0.200322034732751,0.,8.2003220346936));
#495=CARTESIAN_POINT('',(0.200322034732751,-8.2003220346936,-3.25260651745652E-16));
#496=CARTESIAN_POINT('',(0.161326016850839,-8.16132601681168,-3.25260651745652E-16));
#497=CARTESIAN_POINT('',(0.126395501317048,-8.11780013807736,-8.72883944834945E-17));
#498=CARTESIAN_POINT('',(0.096800613797881,-8.07126497444789,-8.72883944834945E-17));
#499=CARTESIAN_POINT('',(0.0518548933582546,-8.00059207684868,-8.72883944834945E-17));
#500=CARTESIAN_POINT('',(0.0183913838987033,-7.92124990898598,2.6310033164032E-16));
#501=CARTESIAN_POINT('',(-0.000752514901905421,-7.83971287825995,2.6310033164032E-16));
#502=CARTESIAN_POINT('',(-0.019941314213586,-7.75798460883229,2.6310033164032E-16));
#503=CARTESIAN_POINT('',(-0.0252608712623799,-7.67180403260974,1.71854527749558E-16));
#504=CARTESIAN_POINT('',(-0.0162516727211104,-7.58833814506094,1.71854527749558E-16));
#505=CARTESIAN_POINT('',(-0.00717047940750337,-7.504205260604,1.71854527749558E-16));
#506=CARTESIAN_POINT('',(0.01672532157039,-7.42048570439817,7.48135684161397E-17));
#507=CARTESIAN_POINT('',(0.0533534065531525,-7.34420206454308,7.48135684161397E-17));
#508=CARTESIAN_POINT('',(0.0900131902253181,-7.26785240727519,7.48135684161397E-17));
#509=CARTESIAN_POINT('',(0.140433764162425,-7.19682453604054,-9.55453164502851E-16));
#510=CARTESIAN_POINT('',(0.200322034732752,-7.13693626547018,-9.55453164502851E-16));
#511=CARTESIAN_POINT('',(0.,0.,0.));
#512=CARTESIAN_POINT('',(5.87212835631121,0.,0.));
#513=CARTESIAN_POINT('',(5.87212835631121,0.,1.46512994389172));
#514=CARTESIAN_POINT('',(0.200322034732752,0.,0.));
#515=CARTESIAN_POINT('',(6.93551412553463,0.,0.));
#516=CARTESIAN_POINT('',(6.93551412553463,0.,1.46512994389172));
#517=CARTESIAN_POINT('',(5.87212835631121,-1.46512994389172,5.6920614055489E-16));
#518=CARTESIAN_POINT('',(5.91112437419312,-1.42613392600981,5.6920614055489E-16));
#519=CARTESIAN_POINT('',(5.95465025292745,-1.39120341047602,-1.6002872321974E-16));
#520=CARTESIAN_POINT('',(6.00118541655691,-1.36160852295685,-1.6002872321974E-16));
#521=CARTESIAN_POINT('',(6.07185831415612,-1.31666280251722,-1.6002872321974E-16));
#522=CARTESIAN_POINT('',(6.15120048201883,-1.28319929305767,3.25006292026278E-16));
#523=CARTESIAN_POINT('',(6.23273751274486,-1.26405539425706,3.25006292026278E-16));
#524=CARTESIAN_POINT('',(6.31446578217251,-1.24486659494539,3.25006292026278E-16));
#525=CARTESIAN_POINT('',(6.40064635839507,-1.23954703789659,-3.5933219438544E-16));
#526=CARTESIAN_POINT('',(6.48411224594386,-1.24855623643786,-3.5933219438544E-16));
#527=CARTESIAN_POINT('',(6.5682451304008,-1.25763742975147,-3.5933219438544E-16));
#528=CARTESIAN_POINT('',(6.65196468660664,-1.28153323072936,-8.97762820993676E-17));
#529=CARTESIAN_POINT('',(6.72824832646172,-1.31816131571212,-8.97762820993676E-17));
#530=CARTESIAN_POINT('',(6.80459798372961,-1.35482109938429,-8.97762820993676E-17));
#531=CARTESIAN_POINT('',(6.87562585496426,-1.4052416733214,-1.45012040569936E-15));
#532=CARTESIAN_POINT('',(6.93551412553463,-1.46512994389172,-1.45012040569936E-15));
#533=CARTESIAN_POINT('',(0.,0.,0.));
#534=CARTESIAN_POINT('',(12.6073204471131,0.,0.));
#535=CARTESIAN_POINT('',(12.6073204471131,0.,7.13693626547018));
#536=CARTESIAN_POINT('',(6.93551412553463,0.,0.));
#537=CARTESIAN_POINT('',(12.6073204471131,0.,0.));
#538=CARTESIAN_POINT('',(12.6073204471131,0.,8.20032203469359));
#539=CARTESIAN_POINT('',(12.6073204471131,-7.13693626547017,2.71050543121376E-16));
#540=CARTESIAN_POINT('',(12.646316464995,-7.17593228335209,2.71050543121376E-16));
#541=CARTESIAN_POINT('',(12.6812469805288,-7.21945816208642,4.36441972417473E-17));
#542=CARTESIAN_POINT('',(12.7108418680479,-7.26599332571588,4.36441972417473E-17));
#543=CARTESIAN_POINT('',(12.7557875884876,-7.33666622331509,4.36441972417473E-17));
#544=CARTESIAN_POINT('',(12.7892510979471,-7.41600839117779,9.28589405789366E-17));
#545=CARTESIAN_POINT('',(12.8083949967477,-7.49754542190382,9.28589405789366E-17));
#546=CARTESIAN_POINT('',(12.8275837960594,-7.57927369133148,9.28589405789366E-17));
#547=CARTESIAN_POINT('',(12.8329033531082,-7.66545426755403,1.87477666635882E-16));
#548=CARTESIAN_POINT('',(12.8238941545669,-7.74892015510283,1.87477666635882E-16));
#549=CARTESIAN_POINT('',(12.8148129612533,-7.83305303955977,1.87477666635882E-16));
#550=CARTESIAN_POINT('',(12.7909171602754,-7.9167725957656,-1.64589850515507E-16));
#551=CARTESIAN_POINT('',(12.7542890752927,-7.99305623562069,-1.64589850515507E-16));
#552=CARTESIAN_POINT('',(12.7176292916205,-8.06940589288858,-1.64589850515507E-16));
#553=CARTESIAN_POINT('',(12.6672087176834,-8.14043376412323,-1.96511643762998E-16));
#554=CARTESIAN_POINT('',(12.6073204471131,-8.20032203469359,-1.96511643762998E-16));
#555=CARTESIAN_POINT('',(0.,0.,0.));
#556=CARTESIAN_POINT('',(6.93551412553462,0.,0.));
#557=CARTESIAN_POINT('',(6.93551412553462,0.,13.872128356272));
#558=CARTESIAN_POINT('',(12.6073204471131,0.,0.));
#559=CARTESIAN_POINT('',(5.8721283563112,0.,0.));
#560=CARTESIAN_POINT('',(5.8721283563112,0.,13.872128356272));
#561=CARTESIAN_POINT('',(6.93551412553462,-13.872128356272,-4.33680868994202E-16));
#562=CARTESIAN_POINT('',(6.8965181076527,-13.911124374154,-4.33680868994202E-16));
#563=CARTESIAN_POINT('',(6.85299222891838,-13.9460548896877,-5.81922629889963E-17));
#564=CARTESIAN_POINT('',(6.80645706528891,-13.9756497772069,-5.81922629889963E-17));
#565=CARTESIAN_POINT('',(6.73578416768971,-14.0205954976465,-5.81922629889963E-17));
#566=CARTESIAN_POINT('',(6.656441999827,-14.0540590071061,3.09529801929789E-16));
#567=CARTESIAN_POINT('',(6.57490496910097,-14.0732029059067,3.09529801929789E-16));
#568=CARTESIAN_POINT('',(6.49317669967331,-14.0923917052184,3.09529801929789E-16));
#569=CARTESIAN_POINT('',(6.40699612345076,-14.0977112622672,1.56231388863234E-16));
#570=CARTESIAN_POINT('',(6.32353023590197,-14.0887020637259,1.56231388863234E-16));
#571=CARTESIAN_POINT('',(6.23939735144502,-14.0796208704123,1.56231388863234E-16));
#572=CARTESIAN_POINT('',(6.15567779523919,-14.0557250694344,2.24440705248419E-16));
#573=CARTESIAN_POINT('',(6.0793941553841,-14.0190969844516,2.24440705248419E-16));
#574=CARTESIAN_POINT('',(6.00304449811622,-13.9824372007795,2.24440705248419E-16));
#575=CARTESIAN_POINT('',(5.93201662688156,-13.9320166268424,4.40457132572236E-16));
#576=CARTESIAN_POINT('',(5.8721283563112,-13.872128356272,4.40457132572236E-16));
#577=CARTESIAN_POINT('',(0.,0.,0.));
#578=CARTESIAN_POINT('',(5.8721283563112,0.,0.));
#579=CARTESIAN_POINT('',(27.,0.,0.));
#580=CARTESIAN_POINT('',(27.,0.,-8.));
#581=CARTESIAN_POINT('',(62.2113248654052,0.,0.));
#582=CARTESIAN_POINT('',(62.2113248654052,0.,-8.));
#583=CARTESIAN_POINT('',(52.8091658364272,0.,0.));
#584=CARTESIAN_POINT('',(46.5,5.05568986390581,6.2));
#585=CARTESIAN_POINT('',(46.5,-5.05568986390581,6.2));
#586=CARTESIAN_POINT('',(5.37764277552811E-16,5.05568986390581,6.2));
#587=CARTESIAN_POINT('',(56.5,5.05568986390582,6.2));
#588=CARTESIAN_POINT('',(50.1908341635728,0.,0.));
#589=CARTESIAN_POINT('',(56.5,-5.05568986390582,6.2));
#590=CARTESIAN_POINT('',(5.37764277552811E-16,-5.05568986390581,6.2));
#591=CARTESIAN_POINT('',(0.,0.,0.));
#592=CARTESIAN_POINT('',(75.,0.,0.));
#593=CARTESIAN_POINT('',(75.,0.,6.9));
#594=CARTESIAN_POINT('',(75.,-7.9,0.));
#595=CARTESIAN_POINT('',(74.,0.,0.));
#596=CARTESIAN_POINT('',(74.,0.,7.9));
#597=CARTESIAN_POINT('',(66.158845726812,0.,0.));
#598=CARTESIAN_POINT('',(66.158845726812,0.,-7.9));
#599=CARTESIAN_POINT('',(0.,0.,0.));
#600=CARTESIAN_POINT('',(64.6,0.,0.));
#601=CARTESIAN_POINT('',(64.6,0.,-7.));
#602=CARTESIAN_POINT('',(64.6,0.,0.));
#603=CARTESIAN_POINT('',(63.,0.,0.));
#604=CARTESIAN_POINT('',(63.,0.,-7.));
#605=CARTESIAN_POINT('',(0.,0.,0.));
#606=CARTESIAN_POINT('',(62.7113248654052,0.,0.));
#607=CARTESIAN_POINT('',(62.7113248654052,0.,-7.5));
#608=CARTESIAN_POINT('',(62.7113248654052,0.,0.));
#609=CARTESIAN_POINT('',(62.2113248654052,0.,0.));
#610=CARTESIAN_POINT('',(26.4190524980689,0.,0.));
#611=CARTESIAN_POINT('',(26.4190524980689,0.,-7.75));
#612=CARTESIAN_POINT('',(12.3258904511974,0.,0.));
#613=CARTESIAN_POINT('',(12.3258904511974,0.,-7.75));
#614=CARTESIAN_POINT('',(0.,0.,0.));
#615=CARTESIAN_POINT('',(6.18873163358718,0.,0.));
#616=CARTESIAN_POINT('',(6.18873163358718,0.,-13.1643728278933));
#617=CARTESIAN_POINT('',(1.00546719540783,0.,0.));
#618=CARTESIAN_POINT('',(1.00546719540783,0.,-8.23040288935257));
#619=CARTESIAN_POINT('',(0.0161087739260703,-6.60189521155299,-3.18));
#620=CARTESIAN_POINT('',(0.,0.,0.));
#621=CARTESIAN_POINT('',(6.61891084821957,0.,0.));
#622=CARTESIAN_POINT('',(6.61891084821957,0.,-13.1643728278933));
#623=CARTESIAN_POINT('',(6.40382124090337,-12.9896076785303,-3.18));
#624=CARTESIAN_POINT('',(0.,0.,0.));
#625=CARTESIAN_POINT('',(1.72553414447719,-6.47941686337288E-18,0.));
#626=CARTESIAN_POINT('',(1.72553414447719,0.,0.));
#627=CARTESIAN_POINT('',(26.4190524980689,0.,0.));
#628=CARTESIAN_POINT('',(6.61891084821957,0.,0.));
#629=CARTESIAN_POINT('',(46.5,-20.,6.2));
#630=CARTESIAN_POINT('',(35.3614749638804,-20.,17.1457980681403));
#631=CARTESIAN_POINT('',(56.5,-20.,6.2));
#632=CARTESIAN_POINT('',(46.5,-20.,6.2));
#633=CARTESIAN_POINT('',(56.5,-20.,6.2));
#634=CARTESIAN_POINT('',(75.,0.,0.));
#635=MECHANICAL_DESIGN_GEOMETRIC_PRESENTATION_REPRESENTATION('',(#62,#63),
#636);
#636=(
GEOMETRIC_REPRESENTATION_CONTEXT(3)
GLOBAL_UNCERTAINTY_ASSIGNED_CONTEXT((#637))
GLOBAL_UNIT_ASSIGNED_CONTEXT((#643,#639,#638))
REPRESENTATION_CONTEXT('16N2R027B16-SSD09-A','TOP_LEVEL_ASSEMBLY_PART')
);
#637=UNCERTAINTY_MEASURE_WITH_UNIT(LENGTH_MEASURE(2.E-5),#643,
'DISTANCE_ACCURACY_VALUE','Maximum Tolerance applied to model');
#638=(
NAMED_UNIT(*)
SI_UNIT($,.STERADIAN.)
SOLID_ANGLE_UNIT()
);
#639=(
CONVERSION_BASED_UNIT('DEGREE',#641)
NAMED_UNIT(#640)
PLANE_ANGLE_UNIT()
);
#640=DIMENSIONAL_EXPONENTS(0.,0.,0.,0.,0.,0.,0.);
#641=PLANE_ANGLE_MEASURE_WITH_UNIT(PLANE_ANGLE_MEASURE(0.0174532925),#642);
#642=(
NAMED_UNIT(*)
PLANE_ANGLE_UNIT()
SI_UNIT($,.RADIAN.)
);
#643=(
LENGTH_UNIT()
NAMED_UNIT(*)
SI_UNIT(.MILLI.,.METRE.)
);
ENDSEC;
END-ISO-10303-21;
