ISO-10303-21;
HEADER;
/* Generated by software containing ST-Developer
 * from STEP Tools, Inc. (www.steptools.com) 
 */
/* OPTION: using custom schema-name function */

FILE_DESCRIPTION(
/* description */ (''),
/* implementation_level */ '2;1');

FILE_NAME(
/* name */ '16K3R060B20-CXP16_115009223ndi000_00-SIM.stp',
/* time_stamp */ '2019-12-06T09:43:18+01:00',
/* author */ (''),
/* organization */ (''),
/* preprocessor_version */ 'ST-DEVELOPER v16.7',
/* originating_system */ 'SIEMENS PLM Software NX 12.0',
/* authorisation */ '');

FILE_SCHEMA (('AUTOMOTIVE_DESIGN { 1 0 10303 214 3 1 1 1 }'));
ENDSEC;

DATA;
#10=PROPERTY_DEFINITION_REPRESENTATION(#14,#12);
#11=PROPERTY_DEFINITION_REPRESENTATION(#15,#13);
#12=REPRESENTATION('',(#16),#392);
#13=REPRESENTATION('',(#17),#392);
#14=PROPERTY_DEFINITION('pmi validation property','',#21);
#15=PROPERTY_DEFINITION('pmi validation property','',#21);
#16=VALUE_REPRESENTATION_ITEM('number of annotations',COUNT_MEASURE(0.));
#17=VALUE_REPRESENTATION_ITEM('number of views',COUNT_MEASURE(0.));
#18=SHAPE_REPRESENTATION_RELATIONSHIP('None',
'relationship between hm152F0C8FD82r58-None and hm152F0C8FD82r58-None',
#30,#19);
#19=ADVANCED_BREP_SHAPE_REPRESENTATION('hm152F0C8FD82r58-None',(#91,#92),
#392);
#20=SHAPE_DEFINITION_REPRESENTATION(#21,#30);
#21=PRODUCT_DEFINITION_SHAPE('','',#22);
#22=PRODUCT_DEFINITION(' ','',#24,#23);
#23=PRODUCT_DEFINITION_CONTEXT('part definition',#29,'design');
#24=PRODUCT_DEFINITION_FORMATION_WITH_SPECIFIED_SOURCE(' ',' ',#26,
 .NOT_KNOWN.);
#25=PRODUCT_RELATED_PRODUCT_CATEGORY('part','',(#26));
#26=PRODUCT('hm152F0C8FD82r58','hm152F0C8FD82r58',' ',(#27));
#27=PRODUCT_CONTEXT(' ',#29,'mechanical');
#28=APPLICATION_PROTOCOL_DEFINITION('international standard',
'automotive_design',2010,#29);
#29=APPLICATION_CONTEXT(
'core data for automotive mechanical design processes');
#30=SHAPE_REPRESENTATION('hm152F0C8FD82r58-None',(#238),#392);
#31=VERTEX_LOOP('',#206);
#32=LINE('',#371,#36);
#33=LINE('',#375,#37);
#34=LINE('',#377,#38);
#35=LINE('',#379,#39);
#36=VECTOR('',#312,1.);
#37=VECTOR('',#315,1.);
#38=VECTOR('',#318,1.);
#39=VECTOR('',#321,1.);
#40=ELLIPSE('',#258,14.2625451098665,9.99675);
#41=ELLIPSE('',#259,14.2625451098666,9.99675);
#42=CONICAL_SURFACE('',#250,9.49999999999996,7.38930405900743);
#43=CONICAL_SURFACE('',#257,8.99675,45.);
#44=CONICAL_SURFACE('',#265,1.25,59.);
#45=CONICAL_SURFACE('',#268,2.65,30.);
#46=CYLINDRICAL_SURFACE('',#246,7.42499999999999);
#47=CYLINDRICAL_SURFACE('',#249,9.49999999999998);
#48=CYLINDRICAL_SURFACE('',#260,9.99675);
#49=CYLINDRICAL_SURFACE('',#267,1.25);
#50=FACE_BOUND('',#129,.T.);
#51=FACE_BOUND('',#130,.T.);
#52=FACE_BOUND('',#131,.T.);
#53=FACE_BOUND('',#132,.T.);
#54=FACE_BOUND('',#133,.T.);
#55=FACE_BOUND('',#134,.T.);
#56=FACE_BOUND('',#135,.T.);
#57=FACE_BOUND('',#136,.T.);
#58=FACE_BOUND('',#137,.T.);
#59=FACE_BOUND('',#138,.T.);
#60=FACE_BOUND('',#139,.T.);
#61=FACE_BOUND('',#140,.T.);
#62=FACE_BOUND('',#141,.T.);
#63=FACE_BOUND('',#142,.T.);
#64=FACE_BOUND('',#143,.T.);
#65=FACE_BOUND('',#144,.T.);
#66=FACE_BOUND('',#145,.T.);
#67=FACE_BOUND('',#149,.T.);
#68=FACE_BOUND('',#31,.T.);
#69=FACE_BOUND('',#150,.T.);
#70=FACE_BOUND('',#151,.T.);
#71=FACE_BOUND('',#152,.T.);
#72=FACE_BOUND('',#153,.T.);
#73=PRESENTATION_LAYER_ASSIGNMENT('96','Layer 96',(#91));
#74=PRESENTATION_LAYER_ASSIGNMENT('14','Layer 14',(#92));
#75=STYLED_ITEM('',(#77),#91);
#76=STYLED_ITEM('',(#78),#92);
#77=PRESENTATION_STYLE_ASSIGNMENT((#79));
#78=PRESENTATION_STYLE_ASSIGNMENT((#80));
#79=SURFACE_STYLE_USAGE(.BOTH.,#81);
#80=SURFACE_STYLE_USAGE(.BOTH.,#82);
#81=SURFACE_SIDE_STYLE('',(#83));
#82=SURFACE_SIDE_STYLE('',(#84));
#83=SURFACE_STYLE_FILL_AREA(#85);
#84=SURFACE_STYLE_FILL_AREA(#86);
#85=FILL_AREA_STYLE('',(#87));
#86=FILL_AREA_STYLE('',(#88));
#87=FILL_AREA_STYLE_COLOUR('',#89);
#88=FILL_AREA_STYLE_COLOUR('',#90);
#89=COLOUR_RGB('Light Gray',0.8,0.8,0.8);
#90=COLOUR_RGB('Silver Gray',0.6,0.6,0.6);
#91=MANIFOLD_SOLID_BREP('',#93);
#92=MANIFOLD_SOLID_BREP('',#94);
#93=CLOSED_SHELL('',(#97,#98));
#94=CLOSED_SHELL('',(#99,#100,#101,#102,#103,#104,#105,#106,#107,#108,#109,
#110,#111,#112,#113));
#95=SPHERICAL_SURFACE('',#241,7.97);
#96=SPHERICAL_SURFACE('',#244,7.42500000000001);
#97=ADVANCED_FACE('',(#121),#114,.T.);
#98=ADVANCED_FACE('',(#122),#95,.T.);
#99=ADVANCED_FACE('',(#50,#51),#96,.T.);
#100=ADVANCED_FACE('',(#52,#53),#46,.T.);
#101=ADVANCED_FACE('',(#54,#55),#47,.T.);
#102=ADVANCED_FACE('',(#56,#57),#42,.T.);
#103=ADVANCED_FACE('',(#58,#59),#115,.T.);
#104=ADVANCED_FACE('',(#60,#61),#116,.F.);
#105=ADVANCED_FACE('',(#62,#63),#43,.T.);
#106=ADVANCED_FACE('CU_SU1',(#64,#65,#66),#48,.T.);
#107=ADVANCED_FACE('',(#123),#117,.F.);
#108=ADVANCED_FACE('',(#124),#118,.F.);
#109=ADVANCED_FACE('',(#125),#119,.F.);
#110=ADVANCED_FACE('',(#67,#68),#44,.F.);
#111=ADVANCED_FACE('',(#69,#70),#49,.F.);
#112=ADVANCED_FACE('',(#71,#72),#45,.F.);
#113=ADVANCED_FACE('',(#126),#120,.T.);
#114=PLANE('',#240);
#115=PLANE('',#252);
#116=PLANE('',#255);
#117=PLANE('',#261);
#118=PLANE('',#262);
#119=PLANE('',#263);
#120=PLANE('',#269);
#121=FACE_OUTER_BOUND('',#127,.T.);
#122=FACE_OUTER_BOUND('',#128,.T.);
#123=FACE_OUTER_BOUND('',#146,.T.);
#124=FACE_OUTER_BOUND('',#147,.T.);
#125=FACE_OUTER_BOUND('',#148,.T.);
#126=FACE_OUTER_BOUND('',#154,.T.);
#127=EDGE_LOOP('',(#155));
#128=EDGE_LOOP('',(#156));
#129=EDGE_LOOP('',(#157));
#130=EDGE_LOOP('',(#158));
#131=EDGE_LOOP('',(#159));
#132=EDGE_LOOP('',(#160));
#133=EDGE_LOOP('',(#161));
#134=EDGE_LOOP('',(#162));
#135=EDGE_LOOP('',(#163));
#136=EDGE_LOOP('',(#164));
#137=EDGE_LOOP('',(#165));
#138=EDGE_LOOP('',(#166));
#139=EDGE_LOOP('',(#167));
#140=EDGE_LOOP('',(#168));
#141=EDGE_LOOP('',(#169));
#142=EDGE_LOOP('',(#170));
#143=EDGE_LOOP('',(#171,#172,#173,#174));
#144=EDGE_LOOP('',(#175));
#145=EDGE_LOOP('',(#176));
#146=EDGE_LOOP('',(#177,#178));
#147=EDGE_LOOP('',(#179,#180));
#148=EDGE_LOOP('',(#181,#182,#183,#184));
#149=EDGE_LOOP('',(#185));
#150=EDGE_LOOP('',(#186));
#151=EDGE_LOOP('',(#187));
#152=EDGE_LOOP('',(#188));
#153=EDGE_LOOP('',(#189));
#154=EDGE_LOOP('',(#190));
#155=ORIENTED_EDGE('',*,*,#208,.F.);
#156=ORIENTED_EDGE('',*,*,#208,.T.);
#157=ORIENTED_EDGE('',*,*,#209,.F.);
#158=ORIENTED_EDGE('',*,*,#210,.T.);
#159=ORIENTED_EDGE('',*,*,#209,.T.);
#160=ORIENTED_EDGE('',*,*,#211,.F.);
#161=ORIENTED_EDGE('',*,*,#212,.F.);
#162=ORIENTED_EDGE('',*,*,#213,.T.);
#163=ORIENTED_EDGE('',*,*,#211,.T.);
#164=ORIENTED_EDGE('',*,*,#212,.T.);
#165=ORIENTED_EDGE('',*,*,#214,.T.);
#166=ORIENTED_EDGE('',*,*,#213,.F.);
#167=ORIENTED_EDGE('',*,*,#215,.T.);
#168=ORIENTED_EDGE('',*,*,#216,.F.);
#169=ORIENTED_EDGE('',*,*,#217,.F.);
#170=ORIENTED_EDGE('',*,*,#216,.T.);
#171=ORIENTED_EDGE('',*,*,#218,.T.);
#172=ORIENTED_EDGE('',*,*,#219,.T.);
#173=ORIENTED_EDGE('',*,*,#220,.T.);
#174=ORIENTED_EDGE('',*,*,#221,.T.);
#175=ORIENTED_EDGE('',*,*,#214,.F.);
#176=ORIENTED_EDGE('',*,*,#217,.T.);
#177=ORIENTED_EDGE('',*,*,#222,.F.);
#178=ORIENTED_EDGE('',*,*,#220,.F.);
#179=ORIENTED_EDGE('',*,*,#223,.T.);
#180=ORIENTED_EDGE('',*,*,#218,.F.);
#181=ORIENTED_EDGE('',*,*,#223,.F.);
#182=ORIENTED_EDGE('',*,*,#221,.F.);
#183=ORIENTED_EDGE('',*,*,#222,.T.);
#184=ORIENTED_EDGE('',*,*,#219,.F.);
#185=ORIENTED_EDGE('',*,*,#224,.T.);
#186=ORIENTED_EDGE('',*,*,#224,.F.);
#187=ORIENTED_EDGE('',*,*,#225,.T.);
#188=ORIENTED_EDGE('',*,*,#225,.F.);
#189=ORIENTED_EDGE('',*,*,#215,.F.);
#190=ORIENTED_EDGE('',*,*,#210,.F.);
#191=VERTEX_POINT('',#340);
#192=VERTEX_POINT('',#344);
#193=VERTEX_POINT('',#346);
#194=VERTEX_POINT('',#349);
#195=VERTEX_POINT('',#352);
#196=VERTEX_POINT('',#354);
#197=VERTEX_POINT('',#358);
#198=VERTEX_POINT('',#361);
#199=VERTEX_POINT('',#363);
#200=VERTEX_POINT('',#366);
#201=VERTEX_POINT('',#369);
#202=VERTEX_POINT('',#370);
#203=VERTEX_POINT('',#372);
#204=VERTEX_POINT('',#374);
#205=VERTEX_POINT('',#383);
#206=VERTEX_POINT('',#384);
#207=VERTEX_POINT('',#387);
#208=EDGE_CURVE('',#191,#191,#226,.T.);
#209=EDGE_CURVE('',#192,#192,#227,.T.);
#210=EDGE_CURVE('',#193,#193,#228,.T.);
#211=EDGE_CURVE('',#194,#194,#229,.T.);
#212=EDGE_CURVE('',#195,#195,#230,.T.);
#213=EDGE_CURVE('',#196,#196,#231,.T.);
#214=EDGE_CURVE('',#197,#197,#232,.T.);
#215=EDGE_CURVE('',#198,#198,#233,.T.);
#216=EDGE_CURVE('',#199,#199,#234,.T.);
#217=EDGE_CURVE('',#200,#200,#235,.T.);
#218=EDGE_CURVE('',#201,#202,#40,.T.);
#219=EDGE_CURVE('',#202,#203,#32,.T.);
#220=EDGE_CURVE('',#203,#204,#41,.T.);
#221=EDGE_CURVE('',#204,#201,#33,.T.);
#222=EDGE_CURVE('',#204,#203,#34,.T.);
#223=EDGE_CURVE('',#201,#202,#35,.T.);
#224=EDGE_CURVE('',#205,#205,#236,.T.);
#225=EDGE_CURVE('',#207,#207,#237,.T.);
#226=CIRCLE('',#239,7.79687552832908);
#227=CIRCLE('',#242,7.42499999999999);
#228=CIRCLE('',#243,1.71172427686231);
#229=CIRCLE('',#245,7.425);
#230=CIRCLE('',#247,9.49999999999996);
#231=CIRCLE('',#248,9.5);
#232=CIRCLE('',#251,9.99675);
#233=CIRCLE('',#253,2.65);
#234=CIRCLE('',#254,8.99675);
#235=CIRCLE('',#256,9.99675);
#236=CIRCLE('',#264,1.25);
#237=CIRCLE('',#266,1.25);
#238=AXIS2_PLACEMENT_3D('',#338,#270,#271);
#239=AXIS2_PLACEMENT_3D('',#339,#272,#273);
#240=AXIS2_PLACEMENT_3D('',#341,#274,#275);
#241=AXIS2_PLACEMENT_3D('',#342,#276,#277);
#242=AXIS2_PLACEMENT_3D('',#343,#278,#279);
#243=AXIS2_PLACEMENT_3D('',#345,#280,#281);
#244=AXIS2_PLACEMENT_3D('',#347,#282,#283);
#245=AXIS2_PLACEMENT_3D('',#348,#284,#285);
#246=AXIS2_PLACEMENT_3D('',#350,#286,#287);
#247=AXIS2_PLACEMENT_3D('',#351,#288,#289);
#248=AXIS2_PLACEMENT_3D('',#353,#290,#291);
#249=AXIS2_PLACEMENT_3D('',#355,#292,#293);
#250=AXIS2_PLACEMENT_3D('',#356,#294,#295);
#251=AXIS2_PLACEMENT_3D('',#357,#296,#297);
#252=AXIS2_PLACEMENT_3D('',#359,#298,#299);
#253=AXIS2_PLACEMENT_3D('',#360,#300,#301);
#254=AXIS2_PLACEMENT_3D('',#362,#302,#303);
#255=AXIS2_PLACEMENT_3D('',#364,#304,#305);
#256=AXIS2_PLACEMENT_3D('',#365,#306,#307);
#257=AXIS2_PLACEMENT_3D('',#367,#308,#309);
#258=AXIS2_PLACEMENT_3D('',#368,#310,#311);
#259=AXIS2_PLACEMENT_3D('',#373,#313,#314);
#260=AXIS2_PLACEMENT_3D('',#376,#316,#317);
#261=AXIS2_PLACEMENT_3D('',#378,#319,#320);
#262=AXIS2_PLACEMENT_3D('',#380,#322,#323);
#263=AXIS2_PLACEMENT_3D('',#381,#324,#325);
#264=AXIS2_PLACEMENT_3D('',#382,#326,#327);
#265=AXIS2_PLACEMENT_3D('',#385,#328,#329);
#266=AXIS2_PLACEMENT_3D('',#386,#330,#331);
#267=AXIS2_PLACEMENT_3D('',#388,#332,#333);
#268=AXIS2_PLACEMENT_3D('',#389,#334,#335);
#269=AXIS2_PLACEMENT_3D('',#390,#336,#337);
#270=DIRECTION('',(0.,0.,1.));
#271=DIRECTION('',(1.,0.,0.));
#272=DIRECTION('',(0.,0.,-1.));
#273=DIRECTION('',(1.,0.,0.));
#274=DIRECTION('',(0.,0.,1.));
#275=DIRECTION('',(1.,0.,0.));
#276=DIRECTION('',(0.87848941930447,0.477746686207715,-0.00380052465349534));
#277=DIRECTION('',(0.142464349296396,-0.25435654055559,0.956559804432607));
#278=DIRECTION('',(-1.66533453693773E-16,-2.77555756156289E-17,1.));
#279=DIRECTION('',(1.,-3.46944695195342E-18,0.));
#280=DIRECTION('',(-5.55111512312578E-16,-2.34534613952064E-15,1.));
#281=DIRECTION('',(-1.,3.46944695195373E-17,0.));
#282=DIRECTION('',(-1.66533453693774E-16,-8.89879155729962E-17,1.));
#283=DIRECTION('',(-3.46944695195358E-17,-1.,0.));
#284=DIRECTION('',(-1.66533453693773E-16,-2.77555756156289E-17,1.));
#285=DIRECTION('',(1.,-3.46944695195341E-18,1.16816395688674E-16));
#286=DIRECTION('',(-1.66533453693773E-16,-2.77555756156289E-17,1.));
#287=DIRECTION('',(1.,-3.46944695195342E-18,0.));
#288=DIRECTION('',(1.66533453693773E-16,2.77555756156289E-17,-1.));
#289=DIRECTION('',(-1.,3.46944695195365E-18,0.));
#290=DIRECTION('',(1.66533453693773E-16,2.77555756156289E-17,-1.));
#291=DIRECTION('',(-1.,3.46944695195364E-18,0.));
#292=DIRECTION('',(1.66533453693773E-16,2.77555756156289E-17,-1.));
#293=DIRECTION('',(-1.,3.46944695195365E-18,0.));
#294=DIRECTION('',(-1.66533453693773E-16,-2.77555756156289E-17,1.));
#295=DIRECTION('',(1.,-3.4694469519536E-18,6.730135084167E-16));
#296=DIRECTION('',(1.66533453693773E-16,1.38777878078145E-17,-1.));
#297=DIRECTION('',(1.,0.,0.));
#298=DIRECTION('',(1.66533453693773E-16,1.38777878078145E-17,-1.));
#299=DIRECTION('',(1.,0.,1.66533453693773E-16));
#300=DIRECTION('',(4.9960036108132E-16,9.71445146547012E-17,-1.));
#301=DIRECTION('',(-1.,2.77555756156288E-17,0.));
#302=DIRECTION('',(1.66533453693773E-16,1.38777878078145E-17,-1.));
#303=DIRECTION('',(1.,0.,0.));
#304=DIRECTION('',(1.66533453693773E-16,1.38777878078145E-17,-1.));
#305=DIRECTION('',(1.,0.,1.66533453693773E-16));
#306=DIRECTION('',(1.66533453693773E-16,1.38777878078145E-17,-1.));
#307=DIRECTION('',(1.,0.,0.));
#308=DIRECTION('',(1.66533453693773E-16,1.38777878078145E-17,-1.));
#309=DIRECTION('',(1.,0.,2.33818783591569E-16));
#310=DIRECTION('',(-1.11022302462516E-16,0.713250449154182,0.700909264299851));
#311=DIRECTION('',(1.66533453693773E-16,0.700909264299851,-0.713250449154181));
#312=DIRECTION('',(1.66533453693773E-16,1.38777878078145E-17,-1.));
#313=DIRECTION('',(1.11022302462516E-16,0.713250449154182,-0.70090926429985));
#314=DIRECTION('',(1.11022302462516E-16,-0.70090926429985,-0.713250449154182));
#315=DIRECTION('',(-1.66533453693773E-16,-1.38777878078145E-17,1.));
#316=DIRECTION('',(1.66533453693773E-16,1.38777878078145E-17,-1.));
#317=DIRECTION('',(1.,0.,0.));
#318=DIRECTION('',(1.,0.,1.66533453693773E-16));
#319=DIRECTION('',(1.11022302462516E-16,0.713250449154182,-0.70090926429985));
#320=DIRECTION('',(-1.11022302462516E-16,0.70090926429985,0.713250449154182));
#321=DIRECTION('',(1.,0.,1.66533453693773E-16));
#322=DIRECTION('',(-1.11022302462516E-16,0.713250449154181,0.700909264299851));
#323=DIRECTION('',(-1.66533453693773E-16,-0.700909264299851,0.713250449154181));
#324=DIRECTION('',(0.,1.,-1.38777878078145E-17));
#325=DIRECTION('',(-1.66533453693773E-16,-1.38777878078145E-17,1.));
#326=DIRECTION('',(-4.9960036108132E-16,-9.71445146547012E-17,1.));
#327=DIRECTION('',(-1.,2.77555756156289E-17,0.));
#328=DIRECTION('',(-4.9960036108132E-16,-9.71445146547012E-17,1.));
#329=DIRECTION('',(1.,-2.77555756156289E-17,4.99941476444924E-16));
#330=DIRECTION('',(-4.9960036108132E-16,-9.71445146547012E-17,1.));
#331=DIRECTION('',(-1.,2.77555756156289E-17,0.));
#332=DIRECTION('',(4.9960036108132E-16,9.71445146547012E-17,-1.));
#333=DIRECTION('',(-1.,2.77555756156289E-17,0.));
#334=DIRECTION('',(-4.9960036108132E-16,-9.71445146547012E-17,1.));
#335=DIRECTION('',(1.,-2.77555756156289E-17,4.06762557304457E-16));
#336=DIRECTION('',(5.55111512312578E-16,2.34534613952064E-15,-1.));
#337=DIRECTION('',(-1.,3.46944695195361E-17,-5.55111512312578E-16));
#338=CARTESIAN_POINT('',(0.,0.,0.));
#339=CARTESIAN_POINT('',(0.00393918213344863,-0.00291605025743488,-25.3855126622829));
#340=CARTESIAN_POINT('',(7.80081471046253,-0.00291605025743488,-25.3855126622829));
#341=CARTESIAN_POINT('',(7.85839972401808,-0.843783307565984,-25.3855126622829));
#342=CARTESIAN_POINT('',(0.00393918213344863,-0.00291605025743488,-27.0376724595613));
#343=CARTESIAN_POINT('',(1.62263308641678E-14,1.73472347597681E-14,-27.0553999999998));
#344=CARTESIAN_POINT('',(7.425,1.73214741161498E-14,-27.0553999999998));
#345=CARTESIAN_POINT('',(-4.7462076439883E-14,5.55111512312578E-14,-34.2803999999998));
#346=CARTESIAN_POINT('',(-1.71172427686236,5.55705385970073E-14,-34.2803999999998));
#347=CARTESIAN_POINT('',(-5.1826201942374E-14,3.81639164714898E-14,-27.0553999999997));
#348=CARTESIAN_POINT('',(7.18171305338637E-15,2.08166817117217E-14,5.00000000000023));
#349=CARTESIAN_POINT('',(7.42500000000001,2.07909210681034E-14,5.00000000000023));
#350=CARTESIAN_POINT('',(-1.49190432649766E-15,1.73472347597681E-14,50.6252530251831));
#351=CARTESIAN_POINT('',(5.44698957740957E-15,1.73472347597681E-14,21.0000000000003));
#352=CARTESIAN_POINT('',(-9.49999999999995,1.73801945058116E-14,21.0000000000003));
#353=CARTESIAN_POINT('',(5.44698957740957E-15,1.73472347597681E-14,25.0000000000003));
#354=CARTESIAN_POINT('',(-9.49999999999999,1.73801945058116E-14,25.0000000000003));
#355=CARTESIAN_POINT('',(-1.49190432649766E-15,1.73472347597681E-14,50.6252530251831));
#356=CARTESIAN_POINT('',(5.44698957740957E-15,1.73472347597681E-14,21.0000000000003));
#357=CARTESIAN_POINT('',(1.97754262545595E-15,2.08166817117217E-14,25.0000000000003));
#358=CARTESIAN_POINT('',(9.99675,2.08166817117217E-14,25.0000000000003));
#359=CARTESIAN_POINT('',(1.97754262545595E-15,2.08166817117217E-14,25.0000000000003));
#360=CARTESIAN_POINT('',(-5.63542310542983E-13,6.93889390390723E-15,76.0000000000003));
#361=CARTESIAN_POINT('',(-2.65000000000056,7.01244617928864E-15,76.0000000000003));
#362=CARTESIAN_POINT('',(-1.49190432649766E-15,1.73472347597681E-14,76.0000000000003));
#363=CARTESIAN_POINT('',(8.99675,1.73472347597681E-14,76.0000000000003));
#364=CARTESIAN_POINT('',(-1.49190432649766E-15,1.73472347597681E-14,76.0000000000003));
#365=CARTESIAN_POINT('',(5.44698957740957E-15,2.42861286636753E-14,75.0000000000003));
#366=CARTESIAN_POINT('',(9.99675000000001,2.42861286636753E-14,75.0000000000003));
#367=CARTESIAN_POINT('',(-1.49190432649766E-15,1.73472347597681E-14,76.0000000000003));
#368=CARTESIAN_POINT('',(1.97754262545595E-15,2.08166817117217E-14,48.8558336321961));
#369=CARTESIAN_POINT('',(-5.99024206522575,-8.00324999999998,57.0000000000003));
#370=CARTESIAN_POINT('',(5.99024206522575,-8.00324999999998,57.0000000000003));
#371=CARTESIAN_POINT('',(5.99024206522574,-8.00324999999998,83.6375000000003));
#372=CARTESIAN_POINT('',(5.99024206522575,-8.00324999999998,45.9750000000003));
#373=CARTESIAN_POINT('',(-1.49190432649766E-15,2.42861286636753E-14,54.1191663678044));
#374=CARTESIAN_POINT('',(-5.99024206522575,-8.00324999999998,45.9750000000003));
#375=CARTESIAN_POINT('',(-5.99024206522576,-8.00324999999998,83.6375000000003));
#376=CARTESIAN_POINT('',(-8.43079823040489E-15,1.73472347597681E-14,83.6375000000003));
#377=CARTESIAN_POINT('',(10.,-8.00324999999998,45.9750000000003));
#378=CARTESIAN_POINT('',(10.,-8.00324999999998,45.9750000000003));
#379=CARTESIAN_POINT('',(10.,-8.00324999999998,57.0000000000003));
#380=CARTESIAN_POINT('',(10.,-20.,69.2079814916386));
#381=CARTESIAN_POINT('',(10.,-8.00324999999998,57.0000000000003));
#382=CARTESIAN_POINT('',(-5.56603416639076E-13,3.46944695195361E-15,70.5000000000003));
#383=CARTESIAN_POINT('',(-1.25000000000056,3.50414142147315E-15,70.5000000000003));
#384=CARTESIAN_POINT('',(-5.63542310542983E-13,-3.46944695195361E-15,69.7489242262158));
#385=CARTESIAN_POINT('',(-5.56603416639076E-13,3.46944695195361E-15,70.5000000000003));
#386=CARTESIAN_POINT('',(-5.56603416639076E-13,3.46944695195361E-15,73.5751288694039));
#387=CARTESIAN_POINT('',(-1.25000000000056,3.50414142147315E-15,73.5751288694039));
#388=CARTESIAN_POINT('',(-5.56603416639076E-13,3.46944695195361E-15,70.5000000000003));
#389=CARTESIAN_POINT('',(-5.63542310542983E-13,6.93889390390723E-15,76.0000000000003));
#390=CARTESIAN_POINT('',(-1.01655217063817E-14,2.42861286636753E-14,-34.2803999999998));
#391=MECHANICAL_DESIGN_GEOMETRIC_PRESENTATION_REPRESENTATION('',(#75,#76),
#392);
#392=(
GEOMETRIC_REPRESENTATION_CONTEXT(3)
GLOBAL_UNCERTAINTY_ASSIGNED_CONTEXT((#393))
GLOBAL_UNIT_ASSIGNED_CONTEXT((#399,#395,#394))
REPRESENTATION_CONTEXT('16K3R060B20-CXP16_115009223ndi000_00-SIM',
'TOP_LEVEL_ASSEMBLY_PART')
);
#393=UNCERTAINTY_MEASURE_WITH_UNIT(LENGTH_MEASURE(2.E-5),#399,
'DISTANCE_ACCURACY_VALUE','Maximum Tolerance applied to model');
#394=(
NAMED_UNIT(*)
SI_UNIT($,.STERADIAN.)
SOLID_ANGLE_UNIT()
);
#395=(
CONVERSION_BASED_UNIT('DEGREE',#397)
NAMED_UNIT(#396)
PLANE_ANGLE_UNIT()
);
#396=DIMENSIONAL_EXPONENTS(0.,0.,0.,0.,0.,0.,0.);
#397=PLANE_ANGLE_MEASURE_WITH_UNIT(PLANE_ANGLE_MEASURE(0.0174532925),#398);
#398=(
NAMED_UNIT(*)
PLANE_ANGLE_UNIT()
SI_UNIT($,.RADIAN.)
);
#399=(
LENGTH_UNIT()
NAMED_UNIT(*)
SI_UNIT(.MILLI.,.METRE.)
);
ENDSEC;
END-ISO-10303-21;
