ISO-10303-21;
HEADER;
/* Generated by software containing ST-Developer
 * from STEP Tools, Inc. (www.steptools.com) 
 */
/* OPTION: using custom schema-name function */

FILE_DESCRIPTION(
/* description */ (''),
/* implementation_level */ '2;1');

FILE_NAME(
/* name */ '115009221ndi000_00_16K3R050A16-CXP16-SIM.stp',
/* time_stamp */ '2019-12-04T08:32:37+01:00',
/* author */ (''),
/* organization */ (''),
/* preprocessor_version */ 'ST-DEVELOPER v16.7',
/* originating_system */ 'SIEMENS PLM Software NX 12.0',
/* authorisation */ '');

FILE_SCHEMA (('AUTOMOTIVE_DESIGN { 1 0 10303 214 3 1 1 1 }'));
ENDSEC;

DATA;
#10=PROPERTY_DEFINITION_REPRESENTATION(#14,#12);
#11=PROPERTY_DEFINITION_REPRESENTATION(#15,#13);
#12=REPRESENTATION('',(#16),#274);
#13=REPRESENTATION('',(#17),#274);
#14=PROPERTY_DEFINITION('pmi validation property','',#21);
#15=PROPERTY_DEFINITION('pmi validation property','',#21);
#16=VALUE_REPRESENTATION_ITEM('number of annotations',COUNT_MEASURE(0.));
#17=VALUE_REPRESENTATION_ITEM('number of views',COUNT_MEASURE(0.));
#18=SHAPE_REPRESENTATION_RELATIONSHIP('None',
'relationship between hm1534D437EEz2us-None and hm1534D437EEz2us-None',
#30,#19);
#19=ADVANCED_BREP_SHAPE_REPRESENTATION('hm1534D437EEz2us-None',(#49,#50),
#274);
#20=SHAPE_DEFINITION_REPRESENTATION(#21,#30);
#21=PRODUCT_DEFINITION_SHAPE('','',#22);
#22=PRODUCT_DEFINITION(' ','',#24,#23);
#23=PRODUCT_DEFINITION_CONTEXT('part definition',#29,'design');
#24=PRODUCT_DEFINITION_FORMATION_WITH_SPECIFIED_SOURCE(' ',' ',#26,
 .NOT_KNOWN.);
#25=PRODUCT_RELATED_PRODUCT_CATEGORY('part','',(#26));
#26=PRODUCT('hm1534D437EEz2us','hm1534D437EEz2us',' ',(#27));
#27=PRODUCT_CONTEXT(' ',#29,'mechanical');
#28=APPLICATION_PROTOCOL_DEFINITION('international standard',
'automotive_design',2010,#29);
#29=APPLICATION_CONTEXT(
'core data for automotive mechanical design processes');
#30=SHAPE_REPRESENTATION('hm1534D437EEz2us-None',(#170),#274);
#31=PRESENTATION_LAYER_ASSIGNMENT('14','Layer 14',(#49));
#32=PRESENTATION_LAYER_ASSIGNMENT('96','Layer 96',(#50));
#33=STYLED_ITEM('',(#35),#49);
#34=STYLED_ITEM('',(#36),#50);
#35=PRESENTATION_STYLE_ASSIGNMENT((#37));
#36=PRESENTATION_STYLE_ASSIGNMENT((#38));
#37=SURFACE_STYLE_USAGE(.BOTH.,#39);
#38=SURFACE_STYLE_USAGE(.BOTH.,#40);
#39=SURFACE_SIDE_STYLE('',(#41));
#40=SURFACE_SIDE_STYLE('',(#42));
#41=SURFACE_STYLE_FILL_AREA(#43);
#42=SURFACE_STYLE_FILL_AREA(#44);
#43=FILL_AREA_STYLE('',(#45));
#44=FILL_AREA_STYLE('',(#46));
#45=FILL_AREA_STYLE_COLOUR('',#47);
#46=FILL_AREA_STYLE_COLOUR('',#48);
#47=COLOUR_RGB('Silver Gray',0.6,0.6,0.6);
#48=COLOUR_RGB('Light Gray',0.8,0.8,0.8);
#49=MANIFOLD_SOLID_BREP('',#51);
#50=MANIFOLD_SOLID_BREP('',#52);
#51=CLOSED_SHELL('',(#67,#68,#69,#70,#71,#72,#73,#74,#75,#76));
#52=CLOSED_SHELL('',(#77,#78));
#53=VERTEX_LOOP('',#147);
#54=CONICAL_SURFACE('',#181,6.99550000000044,44.999999999998);
#55=CONICAL_SURFACE('',#184,7.99549999999957,3.26518488870529);
#56=CONICAL_SURFACE('',#186,1.25,59.);
#57=CONICAL_SURFACE('',#189,2.65,30.);
#58=PLANE('',#176);
#59=PLANE('',#179);
#60=PLANE('',#191);
#61=FACE_OUTER_BOUND('',#103,.T.);
#62=FACE_OUTER_BOUND('',#117,.T.);
#63=FACE_OUTER_BOUND('',#118,.T.);
#64=CYLINDRICAL_SURFACE('',#175,7.42499999999999);
#65=CYLINDRICAL_SURFACE('',#183,8.06249999999999);
#66=CYLINDRICAL_SURFACE('',#188,1.25);
#67=ADVANCED_FACE('',(#81,#82),#79,.T.);
#68=ADVANCED_FACE('',(#83,#84),#64,.T.);
#69=ADVANCED_FACE('',(#61),#58,.T.);
#70=ADVANCED_FACE('',(#85,#86),#59,.F.);
#71=ADVANCED_FACE('',(#87,#88),#54,.T.);
#72=ADVANCED_FACE('',(#89,#90),#65,.T.);
#73=ADVANCED_FACE('',(#91,#92),#55,.T.);
#74=ADVANCED_FACE('',(#93,#94),#56,.F.);
#75=ADVANCED_FACE('',(#95,#96),#66,.F.);
#76=ADVANCED_FACE('',(#97,#98),#57,.F.);
#77=ADVANCED_FACE('',(#62),#60,.T.);
#78=ADVANCED_FACE('',(#63),#80,.T.);
#79=SPHERICAL_SURFACE('',#173,7.42500000000001);
#80=SPHERICAL_SURFACE('',#192,7.97);
#81=FACE_BOUND('',#99,.T.);
#82=FACE_BOUND('',#100,.T.);
#83=FACE_BOUND('',#101,.T.);
#84=FACE_BOUND('',#102,.T.);
#85=FACE_BOUND('',#104,.T.);
#86=FACE_BOUND('',#105,.T.);
#87=FACE_BOUND('',#106,.T.);
#88=FACE_BOUND('',#107,.T.);
#89=FACE_BOUND('',#108,.T.);
#90=FACE_BOUND('',#109,.T.);
#91=FACE_BOUND('',#110,.T.);
#92=FACE_BOUND('',#111,.T.);
#93=FACE_BOUND('',#112,.T.);
#94=FACE_BOUND('',#53,.T.);
#95=FACE_BOUND('',#113,.T.);
#96=FACE_BOUND('',#114,.T.);
#97=FACE_BOUND('',#115,.T.);
#98=FACE_BOUND('',#116,.T.);
#99=EDGE_LOOP('',(#119));
#100=EDGE_LOOP('',(#120));
#101=EDGE_LOOP('',(#121));
#102=EDGE_LOOP('',(#122));
#103=EDGE_LOOP('',(#123));
#104=EDGE_LOOP('',(#124));
#105=EDGE_LOOP('',(#125));
#106=EDGE_LOOP('',(#126));
#107=EDGE_LOOP('',(#127));
#108=EDGE_LOOP('',(#128));
#109=EDGE_LOOP('',(#129));
#110=EDGE_LOOP('',(#130));
#111=EDGE_LOOP('',(#131));
#112=EDGE_LOOP('',(#132));
#113=EDGE_LOOP('',(#133));
#114=EDGE_LOOP('',(#134));
#115=EDGE_LOOP('',(#135));
#116=EDGE_LOOP('',(#136));
#117=EDGE_LOOP('',(#137));
#118=EDGE_LOOP('',(#138));
#119=ORIENTED_EDGE('',*,*,#150,.F.);
#120=ORIENTED_EDGE('',*,*,#151,.T.);
#121=ORIENTED_EDGE('',*,*,#152,.F.);
#122=ORIENTED_EDGE('',*,*,#150,.T.);
#123=ORIENTED_EDGE('',*,*,#151,.F.);
#124=ORIENTED_EDGE('',*,*,#153,.T.);
#125=ORIENTED_EDGE('',*,*,#154,.F.);
#126=ORIENTED_EDGE('',*,*,#155,.F.);
#127=ORIENTED_EDGE('',*,*,#154,.T.);
#128=ORIENTED_EDGE('',*,*,#156,.F.);
#129=ORIENTED_EDGE('',*,*,#155,.T.);
#130=ORIENTED_EDGE('',*,*,#152,.T.);
#131=ORIENTED_EDGE('',*,*,#156,.T.);
#132=ORIENTED_EDGE('',*,*,#157,.T.);
#133=ORIENTED_EDGE('',*,*,#157,.F.);
#134=ORIENTED_EDGE('',*,*,#158,.T.);
#135=ORIENTED_EDGE('',*,*,#158,.F.);
#136=ORIENTED_EDGE('',*,*,#153,.F.);
#137=ORIENTED_EDGE('',*,*,#159,.F.);
#138=ORIENTED_EDGE('',*,*,#159,.T.);
#139=VERTEX_POINT('',#241);
#140=VERTEX_POINT('',#243);
#141=VERTEX_POINT('',#246);
#142=VERTEX_POINT('',#250);
#143=VERTEX_POINT('',#252);
#144=VERTEX_POINT('',#255);
#145=VERTEX_POINT('',#258);
#146=VERTEX_POINT('',#262);
#147=VERTEX_POINT('',#263);
#148=VERTEX_POINT('',#266);
#149=VERTEX_POINT('',#270);
#150=EDGE_CURVE('',#139,#139,#160,.T.);
#151=EDGE_CURVE('',#140,#140,#161,.T.);
#152=EDGE_CURVE('',#141,#141,#162,.T.);
#153=EDGE_CURVE('',#142,#142,#163,.T.);
#154=EDGE_CURVE('',#143,#143,#164,.T.);
#155=EDGE_CURVE('',#144,#144,#165,.T.);
#156=EDGE_CURVE('',#145,#145,#166,.T.);
#157=EDGE_CURVE('',#146,#146,#167,.T.);
#158=EDGE_CURVE('',#148,#148,#168,.T.);
#159=EDGE_CURVE('',#149,#149,#169,.T.);
#160=CIRCLE('',#171,7.42499999999998);
#161=CIRCLE('',#172,1.71172427686207);
#162=CIRCLE('',#174,7.42499999999999);
#163=CIRCLE('',#177,2.65);
#164=CIRCLE('',#178,6.99550000000044);
#165=CIRCLE('',#180,8.06249999999999);
#166=CIRCLE('',#182,8.06249999999999);
#167=CIRCLE('',#185,1.25);
#168=CIRCLE('',#187,1.25);
#169=CIRCLE('',#190,7.79687552832908);
#170=AXIS2_PLACEMENT_3D('',#239,#193,#194);
#171=AXIS2_PLACEMENT_3D('',#240,#195,#196);
#172=AXIS2_PLACEMENT_3D('',#242,#197,#198);
#173=AXIS2_PLACEMENT_3D('',#244,#199,#200);
#174=AXIS2_PLACEMENT_3D('',#245,#201,#202);
#175=AXIS2_PLACEMENT_3D('',#247,#203,#204);
#176=AXIS2_PLACEMENT_3D('',#248,#205,#206);
#177=AXIS2_PLACEMENT_3D('',#249,#207,#208);
#178=AXIS2_PLACEMENT_3D('',#251,#209,#210);
#179=AXIS2_PLACEMENT_3D('',#253,#211,#212);
#180=AXIS2_PLACEMENT_3D('',#254,#213,#214);
#181=AXIS2_PLACEMENT_3D('',#256,#215,#216);
#182=AXIS2_PLACEMENT_3D('',#257,#217,#218);
#183=AXIS2_PLACEMENT_3D('',#259,#219,#220);
#184=AXIS2_PLACEMENT_3D('',#260,#221,#222);
#185=AXIS2_PLACEMENT_3D('',#261,#223,#224);
#186=AXIS2_PLACEMENT_3D('',#264,#225,#226);
#187=AXIS2_PLACEMENT_3D('',#265,#227,#228);
#188=AXIS2_PLACEMENT_3D('',#267,#229,#230);
#189=AXIS2_PLACEMENT_3D('',#268,#231,#232);
#190=AXIS2_PLACEMENT_3D('',#269,#233,#234);
#191=AXIS2_PLACEMENT_3D('',#271,#235,#236);
#192=AXIS2_PLACEMENT_3D('',#272,#237,#238);
#193=DIRECTION('',(0.,0.,1.));
#194=DIRECTION('',(1.,0.,0.));
#195=DIRECTION('',(-1.66533453693773E-16,-2.77555756156289E-17,1.));
#196=DIRECTION('',(1.,-3.46944695195342E-18,0.));
#197=DIRECTION('',(-4.9960036108132E-16,-2.34534613952064E-15,1.));
#198=DIRECTION('',(-1.,2.77555756156324E-17,0.));
#199=DIRECTION('',(-1.66533453693773E-16,-8.89879155729969E-17,1.));
#200=DIRECTION('',(-3.46944695195366E-17,-1.,0.));
#201=DIRECTION('',(-1.66533453693773E-16,-2.77555756156289E-17,1.));
#202=DIRECTION('',(1.,-3.46944695195342E-18,1.16816395688674E-16));
#203=DIRECTION('',(-1.66533453693773E-16,-2.77555756156289E-17,1.));
#204=DIRECTION('',(1.,-3.46944695195342E-18,0.));
#205=DIRECTION('',(4.9960036108132E-16,2.34534613952064E-15,-1.));
#206=DIRECTION('',(-1.,2.77555756156289E-17,-4.9960036108132E-16));
#207=DIRECTION('',(4.9960036108132E-16,9.71445146547012E-17,-1.));
#208=DIRECTION('',(-1.,2.77555756156293E-17,0.));
#209=DIRECTION('',(1.66533453693773E-16,2.77555756156289E-17,-1.));
#210=DIRECTION('',(-1.,3.46944695195358E-18,0.));
#211=DIRECTION('',(1.66533453693773E-16,2.77555756156289E-17,-1.));
#212=DIRECTION('',(-1.,3.46944695195361E-18,-1.66533453693773E-16));
#213=DIRECTION('',(1.66533453693773E-16,2.77555756156289E-17,-1.));
#214=DIRECTION('',(-1.,3.46944695195356E-18,0.));
#215=DIRECTION('',(1.66533453693773E-16,2.77555756156289E-17,-1.));
#216=DIRECTION('',(-1.,3.46944695195361E-18,-2.48064842931947E-16));
#217=DIRECTION('',(1.66533453693773E-16,2.77555756156289E-17,-1.));
#218=DIRECTION('',(1.,-3.46944695195375E-18,0.));
#219=DIRECTION('',(1.66533453693773E-16,2.77555756156289E-17,-1.));
#220=DIRECTION('',(-1.,3.46944695195375E-18,0.));
#221=DIRECTION('',(-1.66533453693773E-16,-2.77555756156289E-17,1.));
#222=DIRECTION('',(1.,-3.46944695195361E-18,1.33346924535747E-15));
#223=DIRECTION('',(-4.9960036108132E-16,-9.71445146547012E-17,1.));
#224=DIRECTION('',(-1.,2.77555756156333E-17,0.));
#225=DIRECTION('',(-4.9960036108132E-16,-9.71445146547012E-17,1.));
#226=DIRECTION('',(1.,-2.77555756156289E-17,5.16606192326421E-16));
#227=DIRECTION('',(-4.9960036108132E-16,-9.71445146547012E-17,1.));
#228=DIRECTION('',(-1.,2.77555756156333E-17,0.));
#229=DIRECTION('',(4.9960036108132E-16,9.71445146547012E-17,-1.));
#230=DIRECTION('',(-1.,2.77555756156333E-17,0.));
#231=DIRECTION('',(-4.9960036108132E-16,-9.71445146547012E-17,1.));
#232=DIRECTION('',(1.,-2.77555756156289E-17,4.30689766557661E-16));
#233=DIRECTION('',(0.,0.,-1.));
#234=DIRECTION('',(1.,0.,0.));
#235=DIRECTION('',(0.,0.,1.));
#236=DIRECTION('',(1.,0.,0.));
#237=DIRECTION('',(0.87848941930447,0.477746686207715,-0.00380052465349534));
#238=DIRECTION('',(0.142464349296396,-0.25435654055559,0.956559804432607));
#239=CARTESIAN_POINT('',(0.,0.,0.));
#240=CARTESIAN_POINT('',(9.7450465100147E-15,1.73472347597681E-14,-27.0553999999998));
#241=CARTESIAN_POINT('',(7.42499999999999,1.73214741161498E-14,-27.0553999999998));
#242=CARTESIAN_POINT('',(-4.5293672094912E-14,7.97972798949331E-14,-34.2803999999998));
#243=CARTESIAN_POINT('',(-1.71172427686211,7.98447897875327E-14,-34.2803999999998));
#244=CARTESIAN_POINT('',(-4.88706922311669E-14,6.59194920871187E-14,-27.0553999999997));
#245=CARTESIAN_POINT('',(2.42819149479147E-16,2.08166817117217E-14,5.0000000000003));
#246=CARTESIAN_POINT('',(7.42499999999999,2.07909210681034E-14,5.0000000000003));
#247=CARTESIAN_POINT('',(-8.43079823040489E-15,1.73472347597681E-14,50.6252530251832));
#248=CARTESIAN_POINT('',(-5.39503214744548E-15,2.42861286636753E-14,-34.2803999999998));
#249=CARTESIAN_POINT('',(-6.95381294717221E-13,-6.59194920871187E-14,165.));
#250=CARTESIAN_POINT('',(-2.6500000000007,-6.58459398117373E-14,165.));
#251=CARTESIAN_POINT('',(-2.92474799421266E-14,1.04083408558608E-14,165.));
#252=CARTESIAN_POINT('',(-6.99550000000047,1.04326113720132E-14,165.));
#253=CARTESIAN_POINT('',(4.14841729907936E-13,9.81853487402873E-13,165.));
#254=CARTESIAN_POINT('',(-4.3125267749941E-14,6.93889390390723E-15,163.933000000001));
#255=CARTESIAN_POINT('',(-8.06250000000003,6.96686631995735E-15,163.933000000001));
#256=CARTESIAN_POINT('',(-2.92474799421266E-14,1.04083408558608E-14,165.));
#257=CARTESIAN_POINT('',(3.71226610143276E-15,1.73472347597681E-14,16.1744084136808));
#258=CARTESIAN_POINT('',(8.06249999999999,1.73192623437179E-14,16.1744084136808));
#259=CARTESIAN_POINT('',(-8.43079823040489E-15,1.73472347597681E-14,50.6252530251832));
#260=CARTESIAN_POINT('',(1.97754262545595E-15,1.38777878078145E-14,15.0000000000003));
#261=CARTESIAN_POINT('',(-6.88442400813313E-13,-6.59194920871187E-14,159.5));
#262=CARTESIAN_POINT('',(-1.25000000000069,-6.58847976175991E-14,159.5));
#263=CARTESIAN_POINT('',(-6.88442400813313E-13,-6.59194920871187E-14,158.748924226216));
#264=CARTESIAN_POINT('',(-6.88442400813313E-13,-6.59194920871187E-14,159.5));
#265=CARTESIAN_POINT('',(-6.95381294717221E-13,-6.59194920871187E-14,162.575128869404));
#266=CARTESIAN_POINT('',(-1.2500000000007,-6.58847976175991E-14,162.575128869404));
#267=CARTESIAN_POINT('',(-6.88442400813313E-13,-6.59194920871187E-14,159.5));
#268=CARTESIAN_POINT('',(-6.95381294717221E-13,-6.59194920871187E-14,165.));
#269=CARTESIAN_POINT('',(0.00393918213344863,-0.00291605025743488,-25.3855126622829));
#270=CARTESIAN_POINT('',(7.80081471046253,-0.00291605025743488,-25.3855126622829));
#271=CARTESIAN_POINT('',(7.85839972401808,-0.843783307565984,-25.3855126622829));
#272=CARTESIAN_POINT('',(0.00393918213344863,-0.00291605025743488,-27.0376724595613));
#273=MECHANICAL_DESIGN_GEOMETRIC_PRESENTATION_REPRESENTATION('',(#33,#34),
#274);
#274=(
GEOMETRIC_REPRESENTATION_CONTEXT(3)
GLOBAL_UNCERTAINTY_ASSIGNED_CONTEXT((#275))
GLOBAL_UNIT_ASSIGNED_CONTEXT((#281,#277,#276))
REPRESENTATION_CONTEXT('115009221ndi000_00_16K3R050A16-CXP16-SIM',
'TOP_LEVEL_ASSEMBLY_PART')
);
#275=UNCERTAINTY_MEASURE_WITH_UNIT(LENGTH_MEASURE(2.E-5),#281,
'DISTANCE_ACCURACY_VALUE','Maximum Tolerance applied to model');
#276=(
NAMED_UNIT(*)
SI_UNIT($,.STERADIAN.)
SOLID_ANGLE_UNIT()
);
#277=(
CONVERSION_BASED_UNIT('DEGREE',#279)
NAMED_UNIT(#278)
PLANE_ANGLE_UNIT()
);
#278=DIMENSIONAL_EXPONENTS(0.,0.,0.,0.,0.,0.,0.);
#279=PLANE_ANGLE_MEASURE_WITH_UNIT(PLANE_ANGLE_MEASURE(0.0174532925),#280);
#280=(
NAMED_UNIT(*)
PLANE_ANGLE_UNIT()
SI_UNIT($,.RADIAN.)
);
#281=(
LENGTH_UNIT()
NAMED_UNIT(*)
SI_UNIT(.MILLI.,.METRE.)
);
ENDSEC;
END-ISO-10303-21;
