ISO-10303-21;
HEADER;
/* Generated by software containing ST-Developer
 * from STEP Tools, Inc. (www.steptools.com) 
 */
/* OPTION: using custom schema-name function */

FILE_DESCRIPTION(
/* description */ (''),
/* implementation_level */ '2;1');

FILE_NAME(
/* name */ '115009220ndi000_00_16K3R035M10-CXP16-SIM.stp',
/* time_stamp */ '2019-12-04T07:31:21+01:00',
/* author */ (''),
/* organization */ (''),
/* preprocessor_version */ 'ST-DEVELOPER v16.7',
/* originating_system */ 'SIEMENS PLM Software NX 12.0',
/* authorisation */ '');

FILE_SCHEMA (('AUTOMOTIVE_DESIGN { 1 0 10303 214 3 1 1 1 }'));
ENDSEC;

DATA;
#10=PROPERTY_DEFINITION_REPRESENTATION(#14,#12);
#11=PROPERTY_DEFINITION_REPRESENTATION(#15,#13);
#12=REPRESENTATION('',(#16),#554);
#13=REPRESENTATION('',(#17),#554);
#14=PROPERTY_DEFINITION('pmi validation property','',#21);
#15=PROPERTY_DEFINITION('pmi validation property','',#21);
#16=VALUE_REPRESENTATION_ITEM('number of annotations',COUNT_MEASURE(0.));
#17=VALUE_REPRESENTATION_ITEM('number of views',COUNT_MEASURE(0.));
#18=SHAPE_REPRESENTATION_RELATIONSHIP('None',
'relationship between hm1534D437EEz2of-None and hm1534D437EEz2of-None',
#30,#19);
#19=ADVANCED_BREP_SHAPE_REPRESENTATION('hm1534D437EEz2of-None',(#49,#50),
#554);
#20=SHAPE_DEFINITION_REPRESENTATION(#21,#30);
#21=PRODUCT_DEFINITION_SHAPE('','',#22);
#22=PRODUCT_DEFINITION(' ','',#24,#23);
#23=PRODUCT_DEFINITION_CONTEXT('part definition',#29,'design');
#24=PRODUCT_DEFINITION_FORMATION_WITH_SPECIFIED_SOURCE(' ',' ',#26,
 .NOT_KNOWN.);
#25=PRODUCT_RELATED_PRODUCT_CATEGORY('part','',(#26));
#26=PRODUCT('hm1534D437EEz2of','hm1534D437EEz2of',' ',(#27));
#27=PRODUCT_CONTEXT(' ',#29,'mechanical');
#28=APPLICATION_PROTOCOL_DEFINITION('international standard',
'automotive_design',2010,#29);
#29=APPLICATION_CONTEXT(
'core data for automotive mechanical design processes');
#30=SHAPE_REPRESENTATION('hm1534D437EEz2of-None',(#324),#554);
#31=PRESENTATION_LAYER_ASSIGNMENT('14','Layer 14',(#49));
#32=PRESENTATION_LAYER_ASSIGNMENT('96','Layer 96',(#50));
#33=STYLED_ITEM('',(#35),#49);
#34=STYLED_ITEM('',(#36),#50);
#35=PRESENTATION_STYLE_ASSIGNMENT((#37));
#36=PRESENTATION_STYLE_ASSIGNMENT((#38));
#37=SURFACE_STYLE_USAGE(.BOTH.,#39);
#38=SURFACE_STYLE_USAGE(.BOTH.,#40);
#39=SURFACE_SIDE_STYLE('',(#41));
#40=SURFACE_SIDE_STYLE('',(#42));
#41=SURFACE_STYLE_FILL_AREA(#43);
#42=SURFACE_STYLE_FILL_AREA(#44);
#43=FILL_AREA_STYLE('',(#45));
#44=FILL_AREA_STYLE('',(#46));
#45=FILL_AREA_STYLE_COLOUR('',#47);
#46=FILL_AREA_STYLE_COLOUR('',#48);
#47=COLOUR_RGB('Silver Gray',0.6,0.6,0.6);
#48=COLOUR_RGB('Light Gray',0.8,0.8,0.8);
#49=MANIFOLD_SOLID_BREP('',#51);
#50=MANIFOLD_SOLID_BREP('',#52);
#51=CLOSED_SHELL('',(#77,#78,#79,#80,#81,#82,#83,#84,#85,#86,#87,#88,#89,
#90,#91,#92,#93,#94,#95,#96,#97,#98,#99,#100));
#52=CLOSED_SHELL('',(#101,#102));
#53=SPHERICAL_SURFACE('',#367,7.425);
#54=SPHERICAL_SURFACE('',#374,7.97);
#55=FACE_OUTER_BOUND('',#192,.T.);
#56=FACE_OUTER_BOUND('',#201,.T.);
#57=FACE_OUTER_BOUND('',#202,.T.);
#58=VERTEX_LOOP('',#268);
#59=CYLINDRICAL_SURFACE('',#333,5.05);
#60=CYLINDRICAL_SURFACE('',#337,5.3375);
#61=CYLINDRICAL_SURFACE('',#345,3.85);
#62=CYLINDRICAL_SURFACE('',#351,5.);
#63=CYLINDRICAL_SURFACE('',#359,1.);
#64=CYLINDRICAL_SURFACE('',#363,7.6875);
#65=CYLINDRICAL_SURFACE('',#369,7.42499999999997);
#66=TOROIDAL_SURFACE('',#331,5.45,0.4);
#67=TOROIDAL_SURFACE('',#343,4.45,0.6);
#68=TOROIDAL_SURFACE('',#347,4.45,0.6);
#69=CONICAL_SURFACE('',#329,5.50566924038403,82.);
#70=CONICAL_SURFACE('',#335,5.25,15.0000000000001);
#71=CONICAL_SURFACE('',#339,5.0356406460551,15.);
#72=CONICAL_SURFACE('',#349,5.,29.9999999999999);
#73=CONICAL_SURFACE('',#353,3.0125,30.);
#74=CONICAL_SURFACE('',#357,1.,59.);
#75=CONICAL_SURFACE('',#360,2.125,30.);
#76=CONICAL_SURFACE('',#371,7.6875,45.);
#77=ADVANCED_FACE('CU_SU1',(#109,#110),#103,.F.);
#78=ADVANCED_FACE('',(#111,#112),#69,.F.);
#79=ADVANCED_FACE('',(#113,#114),#66,.F.);
#80=ADVANCED_FACE('',(#115,#116),#59,.T.);
#81=ADVANCED_FACE('',(#117,#118),#70,.T.);
#82=ADVANCED_FACE('CU_SU2',(#119,#120),#60,.T.);
#83=ADVANCED_FACE('',(#121,#122),#71,.T.);
#84=ADVANCED_FACE('',(#123,#124),#104,.F.);
#85=ADVANCED_FACE('',(#125,#126),#67,.F.);
#86=ADVANCED_FACE('',(#127,#128),#61,.T.);
#87=ADVANCED_FACE('',(#129,#130),#68,.F.);
#88=ADVANCED_FACE('',(#131,#132),#72,.T.);
#89=ADVANCED_FACE('',(#133,#134),#62,.T.);
#90=ADVANCED_FACE('',(#135,#136),#73,.T.);
#91=ADVANCED_FACE('',(#137,#138),#105,.F.);
#92=ADVANCED_FACE('',(#139,#140),#74,.F.);
#93=ADVANCED_FACE('',(#141,#142),#63,.F.);
#94=ADVANCED_FACE('',(#143,#144),#75,.F.);
#95=ADVANCED_FACE('',(#145,#146),#64,.T.);
#96=ADVANCED_FACE('',(#55),#106,.T.);
#97=ADVANCED_FACE('',(#147,#148),#53,.T.);
#98=ADVANCED_FACE('',(#149,#150),#65,.T.);
#99=ADVANCED_FACE('',(#151,#152),#107,.F.);
#100=ADVANCED_FACE('',(#153,#154),#76,.T.);
#101=ADVANCED_FACE('',(#56),#108,.T.);
#102=ADVANCED_FACE('',(#57),#54,.T.);
#103=PLANE('',#327);
#104=PLANE('',#341);
#105=PLANE('',#355);
#106=PLANE('',#365);
#107=PLANE('',#370);
#108=PLANE('',#373);
#109=FACE_BOUND('',#155,.T.);
#110=FACE_BOUND('',#156,.T.);
#111=FACE_BOUND('',#157,.T.);
#112=FACE_BOUND('',#158,.T.);
#113=FACE_BOUND('',#159,.T.);
#114=FACE_BOUND('',#160,.T.);
#115=FACE_BOUND('',#161,.T.);
#116=FACE_BOUND('',#162,.T.);
#117=FACE_BOUND('',#163,.T.);
#118=FACE_BOUND('',#164,.T.);
#119=FACE_BOUND('',#165,.T.);
#120=FACE_BOUND('',#166,.T.);
#121=FACE_BOUND('',#167,.T.);
#122=FACE_BOUND('',#168,.T.);
#123=FACE_BOUND('',#169,.T.);
#124=FACE_BOUND('',#170,.T.);
#125=FACE_BOUND('',#171,.T.);
#126=FACE_BOUND('',#172,.T.);
#127=FACE_BOUND('',#173,.T.);
#128=FACE_BOUND('',#174,.T.);
#129=FACE_BOUND('',#175,.T.);
#130=FACE_BOUND('',#176,.T.);
#131=FACE_BOUND('',#177,.T.);
#132=FACE_BOUND('',#178,.T.);
#133=FACE_BOUND('',#179,.T.);
#134=FACE_BOUND('',#180,.T.);
#135=FACE_BOUND('',#181,.T.);
#136=FACE_BOUND('',#182,.T.);
#137=FACE_BOUND('',#183,.T.);
#138=FACE_BOUND('',#184,.T.);
#139=FACE_BOUND('',#185,.T.);
#140=FACE_BOUND('',#58,.T.);
#141=FACE_BOUND('',#186,.T.);
#142=FACE_BOUND('',#187,.T.);
#143=FACE_BOUND('',#188,.T.);
#144=FACE_BOUND('',#189,.T.);
#145=FACE_BOUND('',#190,.T.);
#146=FACE_BOUND('',#191,.T.);
#147=FACE_BOUND('',#193,.T.);
#148=FACE_BOUND('',#194,.T.);
#149=FACE_BOUND('',#195,.T.);
#150=FACE_BOUND('',#196,.T.);
#151=FACE_BOUND('',#197,.T.);
#152=FACE_BOUND('',#198,.T.);
#153=FACE_BOUND('',#199,.T.);
#154=FACE_BOUND('',#200,.T.);
#155=EDGE_LOOP('',(#203));
#156=EDGE_LOOP('',(#204));
#157=EDGE_LOOP('',(#205));
#158=EDGE_LOOP('',(#206));
#159=EDGE_LOOP('',(#207));
#160=EDGE_LOOP('',(#208));
#161=EDGE_LOOP('',(#209));
#162=EDGE_LOOP('',(#210));
#163=EDGE_LOOP('',(#211));
#164=EDGE_LOOP('',(#212));
#165=EDGE_LOOP('',(#213));
#166=EDGE_LOOP('',(#214));
#167=EDGE_LOOP('',(#215));
#168=EDGE_LOOP('',(#216));
#169=EDGE_LOOP('',(#217));
#170=EDGE_LOOP('',(#218));
#171=EDGE_LOOP('',(#219));
#172=EDGE_LOOP('',(#220));
#173=EDGE_LOOP('',(#221));
#174=EDGE_LOOP('',(#222));
#175=EDGE_LOOP('',(#223));
#176=EDGE_LOOP('',(#224));
#177=EDGE_LOOP('',(#225));
#178=EDGE_LOOP('',(#226));
#179=EDGE_LOOP('',(#227));
#180=EDGE_LOOP('',(#228));
#181=EDGE_LOOP('',(#229));
#182=EDGE_LOOP('',(#230));
#183=EDGE_LOOP('',(#231));
#184=EDGE_LOOP('',(#232));
#185=EDGE_LOOP('',(#233));
#186=EDGE_LOOP('',(#234));
#187=EDGE_LOOP('',(#235));
#188=EDGE_LOOP('',(#236));
#189=EDGE_LOOP('',(#237));
#190=EDGE_LOOP('',(#238));
#191=EDGE_LOOP('',(#239));
#192=EDGE_LOOP('',(#240));
#193=EDGE_LOOP('',(#241));
#194=EDGE_LOOP('',(#242));
#195=EDGE_LOOP('',(#243));
#196=EDGE_LOOP('',(#244));
#197=EDGE_LOOP('',(#245));
#198=EDGE_LOOP('',(#246));
#199=EDGE_LOOP('',(#247));
#200=EDGE_LOOP('',(#248));
#201=EDGE_LOOP('',(#249));
#202=EDGE_LOOP('',(#250));
#203=ORIENTED_EDGE('',*,*,#276,.T.);
#204=ORIENTED_EDGE('',*,*,#277,.T.);
#205=ORIENTED_EDGE('',*,*,#277,.F.);
#206=ORIENTED_EDGE('',*,*,#278,.T.);
#207=ORIENTED_EDGE('',*,*,#278,.F.);
#208=ORIENTED_EDGE('',*,*,#279,.T.);
#209=ORIENTED_EDGE('',*,*,#279,.F.);
#210=ORIENTED_EDGE('',*,*,#280,.T.);
#211=ORIENTED_EDGE('',*,*,#280,.F.);
#212=ORIENTED_EDGE('',*,*,#281,.T.);
#213=ORIENTED_EDGE('',*,*,#281,.F.);
#214=ORIENTED_EDGE('',*,*,#282,.T.);
#215=ORIENTED_EDGE('',*,*,#282,.F.);
#216=ORIENTED_EDGE('',*,*,#283,.T.);
#217=ORIENTED_EDGE('',*,*,#283,.F.);
#218=ORIENTED_EDGE('',*,*,#284,.T.);
#219=ORIENTED_EDGE('',*,*,#284,.F.);
#220=ORIENTED_EDGE('',*,*,#285,.T.);
#221=ORIENTED_EDGE('',*,*,#285,.F.);
#222=ORIENTED_EDGE('',*,*,#286,.T.);
#223=ORIENTED_EDGE('',*,*,#286,.F.);
#224=ORIENTED_EDGE('',*,*,#287,.T.);
#225=ORIENTED_EDGE('',*,*,#287,.F.);
#226=ORIENTED_EDGE('',*,*,#288,.T.);
#227=ORIENTED_EDGE('',*,*,#288,.F.);
#228=ORIENTED_EDGE('',*,*,#289,.T.);
#229=ORIENTED_EDGE('',*,*,#289,.F.);
#230=ORIENTED_EDGE('',*,*,#290,.T.);
#231=ORIENTED_EDGE('',*,*,#291,.T.);
#232=ORIENTED_EDGE('',*,*,#290,.F.);
#233=ORIENTED_EDGE('',*,*,#292,.T.);
#234=ORIENTED_EDGE('',*,*,#292,.F.);
#235=ORIENTED_EDGE('',*,*,#293,.T.);
#236=ORIENTED_EDGE('',*,*,#293,.F.);
#237=ORIENTED_EDGE('',*,*,#291,.F.);
#238=ORIENTED_EDGE('',*,*,#294,.T.);
#239=ORIENTED_EDGE('',*,*,#295,.F.);
#240=ORIENTED_EDGE('',*,*,#296,.F.);
#241=ORIENTED_EDGE('',*,*,#297,.F.);
#242=ORIENTED_EDGE('',*,*,#296,.T.);
#243=ORIENTED_EDGE('',*,*,#297,.T.);
#244=ORIENTED_EDGE('',*,*,#298,.T.);
#245=ORIENTED_EDGE('',*,*,#295,.T.);
#246=ORIENTED_EDGE('',*,*,#298,.F.);
#247=ORIENTED_EDGE('',*,*,#276,.F.);
#248=ORIENTED_EDGE('',*,*,#294,.F.);
#249=ORIENTED_EDGE('',*,*,#299,.F.);
#250=ORIENTED_EDGE('',*,*,#299,.T.);
#251=VERTEX_POINT('',#479);
#252=VERTEX_POINT('',#481);
#253=VERTEX_POINT('',#484);
#254=VERTEX_POINT('',#487);
#255=VERTEX_POINT('',#490);
#256=VERTEX_POINT('',#493);
#257=VERTEX_POINT('',#496);
#258=VERTEX_POINT('',#499);
#259=VERTEX_POINT('',#502);
#260=VERTEX_POINT('',#505);
#261=VERTEX_POINT('',#508);
#262=VERTEX_POINT('',#511);
#263=VERTEX_POINT('',#514);
#264=VERTEX_POINT('',#517);
#265=VERTEX_POINT('',#520);
#266=VERTEX_POINT('',#523);
#267=VERTEX_POINT('',#526);
#268=VERTEX_POINT('',#527);
#269=VERTEX_POINT('',#530);
#270=VERTEX_POINT('',#534);
#271=VERTEX_POINT('',#536);
#272=VERTEX_POINT('',#539);
#273=VERTEX_POINT('',#542);
#274=VERTEX_POINT('',#545);
#275=VERTEX_POINT('',#550);
#276=EDGE_CURVE('',#251,#251,#300,.T.);
#277=EDGE_CURVE('',#252,#252,#301,.T.);
#278=EDGE_CURVE('',#253,#253,#302,.T.);
#279=EDGE_CURVE('',#254,#254,#303,.T.);
#280=EDGE_CURVE('',#255,#255,#304,.T.);
#281=EDGE_CURVE('',#256,#256,#305,.T.);
#282=EDGE_CURVE('',#257,#257,#306,.T.);
#283=EDGE_CURVE('',#258,#258,#307,.T.);
#284=EDGE_CURVE('',#259,#259,#308,.T.);
#285=EDGE_CURVE('',#260,#260,#309,.T.);
#286=EDGE_CURVE('',#261,#261,#310,.T.);
#287=EDGE_CURVE('',#262,#262,#311,.T.);
#288=EDGE_CURVE('',#263,#263,#312,.T.);
#289=EDGE_CURVE('',#264,#264,#313,.T.);
#290=EDGE_CURVE('',#265,#265,#314,.T.);
#291=EDGE_CURVE('',#266,#266,#315,.T.);
#292=EDGE_CURVE('',#267,#267,#316,.T.);
#293=EDGE_CURVE('',#269,#269,#317,.T.);
#294=EDGE_CURVE('',#270,#270,#318,.T.);
#295=EDGE_CURVE('',#271,#271,#319,.T.);
#296=EDGE_CURVE('',#272,#272,#320,.T.);
#297=EDGE_CURVE('',#273,#273,#321,.T.);
#298=EDGE_CURVE('',#274,#274,#322,.T.);
#299=EDGE_CURVE('',#275,#275,#323,.T.);
#300=CIRCLE('',#325,7.3875);
#301=CIRCLE('',#326,6.54527618313501);
#302=CIRCLE('',#328,5.50566924038403);
#303=CIRCLE('',#330,5.05);
#304=CIRCLE('',#332,5.05);
#305=CIRCLE('',#334,5.3375);
#306=CIRCLE('',#336,5.3375);
#307=CIRCLE('',#338,5.0356406460551);
#308=CIRCLE('',#340,4.45);
#309=CIRCLE('',#342,3.85);
#310=CIRCLE('',#344,3.85);
#311=CIRCLE('',#346,3.93038475772934);
#312=CIRCLE('',#348,5.);
#313=CIRCLE('',#350,5.);
#314=CIRCLE('',#352,3.0125);
#315=CIRCLE('',#354,2.125);
#316=CIRCLE('',#356,1.);
#317=CIRCLE('',#358,1.);
#318=CIRCLE('',#361,7.6875);
#319=CIRCLE('',#362,7.6875);
#320=CIRCLE('',#364,1.71172427686185);
#321=CIRCLE('',#366,7.42499999999999);
#322=CIRCLE('',#368,7.42499999999997);
#323=CIRCLE('',#372,7.79687552832908);
#324=AXIS2_PLACEMENT_3D('',#477,#375,#376);
#325=AXIS2_PLACEMENT_3D('',#478,#377,#378);
#326=AXIS2_PLACEMENT_3D('',#480,#379,#380);
#327=AXIS2_PLACEMENT_3D('',#482,#381,#382);
#328=AXIS2_PLACEMENT_3D('',#483,#383,#384);
#329=AXIS2_PLACEMENT_3D('',#485,#385,#386);
#330=AXIS2_PLACEMENT_3D('',#486,#387,#388);
#331=AXIS2_PLACEMENT_3D('',#488,#389,#390);
#332=AXIS2_PLACEMENT_3D('',#489,#391,#392);
#333=AXIS2_PLACEMENT_3D('',#491,#393,#394);
#334=AXIS2_PLACEMENT_3D('',#492,#395,#396);
#335=AXIS2_PLACEMENT_3D('',#494,#397,#398);
#336=AXIS2_PLACEMENT_3D('',#495,#399,#400);
#337=AXIS2_PLACEMENT_3D('',#497,#401,#402);
#338=AXIS2_PLACEMENT_3D('',#498,#403,#404);
#339=AXIS2_PLACEMENT_3D('',#500,#405,#406);
#340=AXIS2_PLACEMENT_3D('',#501,#407,#408);
#341=AXIS2_PLACEMENT_3D('',#503,#409,#410);
#342=AXIS2_PLACEMENT_3D('',#504,#411,#412);
#343=AXIS2_PLACEMENT_3D('',#506,#413,#414);
#344=AXIS2_PLACEMENT_3D('',#507,#415,#416);
#345=AXIS2_PLACEMENT_3D('',#509,#417,#418);
#346=AXIS2_PLACEMENT_3D('',#510,#419,#420);
#347=AXIS2_PLACEMENT_3D('',#512,#421,#422);
#348=AXIS2_PLACEMENT_3D('',#513,#423,#424);
#349=AXIS2_PLACEMENT_3D('',#515,#425,#426);
#350=AXIS2_PLACEMENT_3D('',#516,#427,#428);
#351=AXIS2_PLACEMENT_3D('',#518,#429,#430);
#352=AXIS2_PLACEMENT_3D('',#519,#431,#432);
#353=AXIS2_PLACEMENT_3D('',#521,#433,#434);
#354=AXIS2_PLACEMENT_3D('',#522,#435,#436);
#355=AXIS2_PLACEMENT_3D('',#524,#437,#438);
#356=AXIS2_PLACEMENT_3D('',#525,#439,#440);
#357=AXIS2_PLACEMENT_3D('',#528,#441,#442);
#358=AXIS2_PLACEMENT_3D('',#529,#443,#444);
#359=AXIS2_PLACEMENT_3D('',#531,#445,#446);
#360=AXIS2_PLACEMENT_3D('',#532,#447,#448);
#361=AXIS2_PLACEMENT_3D('',#533,#449,#450);
#362=AXIS2_PLACEMENT_3D('',#535,#451,#452);
#363=AXIS2_PLACEMENT_3D('',#537,#453,#454);
#364=AXIS2_PLACEMENT_3D('',#538,#455,#456);
#365=AXIS2_PLACEMENT_3D('',#540,#457,#458);
#366=AXIS2_PLACEMENT_3D('',#541,#459,#460);
#367=AXIS2_PLACEMENT_3D('',#543,#461,#462);
#368=AXIS2_PLACEMENT_3D('',#544,#463,#464);
#369=AXIS2_PLACEMENT_3D('',#546,#465,#466);
#370=AXIS2_PLACEMENT_3D('',#547,#467,#468);
#371=AXIS2_PLACEMENT_3D('',#548,#469,#470);
#372=AXIS2_PLACEMENT_3D('',#549,#471,#472);
#373=AXIS2_PLACEMENT_3D('',#551,#473,#474);
#374=AXIS2_PLACEMENT_3D('',#552,#475,#476);
#375=DIRECTION('',(0.,0.,1.));
#376=DIRECTION('',(1.,0.,0.));
#377=DIRECTION('',(2.64460116437887E-18,2.76303160048883E-17,1.));
#378=DIRECTION('',(-2.01763362009159E-33,-1.,2.75178216366879E-17));
#379=DIRECTION('',(-2.64460116437887E-18,-2.76303160048883E-17,-1.));
#380=DIRECTION('',(-2.01504814269104E-33,-1.,2.79528489689027E-17));
#381=DIRECTION('',(-2.64460116437887E-18,-2.76303160048883E-17,-1.));
#382=DIRECTION('',(0.,-1.,2.76336028712243E-17));
#383=DIRECTION('',(-2.64460116437887E-18,-2.76303160048883E-17,-1.));
#384=DIRECTION('',(-2.01549824140696E-33,-1.,2.70771439779333E-17));
#385=DIRECTION('',(2.64460116437887E-18,2.76303160048883E-17,1.));
#386=DIRECTION('',(2.00649386334272E-33,1.,-3.50799819969425E-17));
#387=DIRECTION('',(-2.64460116437887E-18,-2.76303160048883E-17,-1.));
#388=DIRECTION('',(-2.01114281011972E-33,-1.,3.2204024925312E-17));
#389=DIRECTION('',(-2.64460116437887E-18,-2.76303160048883E-17,-1.));
#390=DIRECTION('',(-2.00939205268767E-33,-1.,2.78000557047565E-17));
#391=DIRECTION('',(-2.64460116437887E-18,-2.76303160048883E-17,-1.));
#392=DIRECTION('',(-2.01114281011972E-33,-1.,4.2938699900416E-17));
#393=DIRECTION('',(-2.64460116437887E-18,-2.76303160048883E-17,-1.));
#394=DIRECTION('',(-2.38357666384559E-33,-1.,0.));
#395=DIRECTION('',(-2.64460116437887E-18,-2.76303160048883E-17,-1.));
#396=DIRECTION('',(1.97328887744594E-33,1.,0.));
#397=DIRECTION('',(2.64460116437887E-18,2.76303160048883E-17,1.));
#398=DIRECTION('',(9.25252754048871E-34,1.,-2.53986618414203E-17));
#399=DIRECTION('',(-2.64460116437887E-18,-2.76303160048883E-17,-1.));
#400=DIRECTION('',(-1.97328887744594E-33,-1.,0.));
#401=DIRECTION('',(-2.64460116437887E-18,-2.76303160048883E-17,-1.));
#402=DIRECTION('',(-2.25518728850964E-33,-1.,0.));
#403=DIRECTION('',(-2.64460116437887E-18,-2.76303160048883E-17,-1.));
#404=DIRECTION('',(-1.7927801542764E-33,-1.,0.));
#405=DIRECTION('',(-2.64460116437887E-18,-2.76303160048883E-17,-1.));
#406=DIRECTION('',(-1.76377009912739E-33,-1.,-2.54186059558314E-17));
#407=DIRECTION('',(-2.64460116437887E-18,-2.76303160048883E-17,-1.));
#408=DIRECTION('',(-2.02871834029554E-33,-1.,0.));
#409=DIRECTION('',(-2.64460116437887E-18,-2.76303160048883E-17,-1.));
#410=DIRECTION('',(0.,-1.,2.77555756156289E-17));
#411=DIRECTION('',(-2.64460116437887E-18,-2.76303160048883E-17,-1.));
#412=DIRECTION('',(-2.34488223748446E-33,-1.,0.));
#413=DIRECTION('',(-2.64460116437887E-18,-2.76303160048883E-17,-1.));
#414=DIRECTION('',(-1.78768249788419E-33,-1.,0.));
#415=DIRECTION('',(-2.64460116437887E-18,-2.76303160048883E-17,-1.));
#416=DIRECTION('',(-2.34488223748446E-33,-1.,0.));
#417=DIRECTION('',(-2.64460116437887E-18,-2.76303160048883E-17,-1.));
#418=DIRECTION('',(-3.12650964997928E-33,-1.,0.));
#419=DIRECTION('',(-2.64460116437887E-18,-2.76303160048883E-17,-1.));
#420=DIRECTION('',(-2.29692439056035E-33,-1.,0.));
#421=DIRECTION('',(-2.64460116437887E-18,-2.76303160048883E-17,-1.));
#422=DIRECTION('',(-1.78768249788419E-33,-1.,0.));
#423=DIRECTION('',(-2.64460116437887E-18,-2.76303160048883E-17,-1.));
#424=DIRECTION('',(-1.80555932286303E-33,-1.,0.));
#425=DIRECTION('',(2.64460116437887E-18,2.76303160048883E-17,1.));
#426=DIRECTION('',(2.04630995491404E-33,1.,3.5745981092598E-17));
#427=DIRECTION('',(-2.64460116437887E-18,-2.76303160048883E-17,-1.));
#428=DIRECTION('',(-2.40741243048404E-33,-1.,0.));
#429=DIRECTION('',(-2.64460116437887E-18,-2.76303160048883E-17,-1.));
#430=DIRECTION('',(-2.40741243048405E-33,-1.,0.));
#431=DIRECTION('',(-2.64460116437887E-18,-2.76303160048883E-17,-1.));
#432=DIRECTION('',(-1.99785263940585E-33,-1.,0.));
#433=DIRECTION('',(-2.64460116437887E-18,-2.76303160048883E-17,-1.));
#434=DIRECTION('',(-2.21924237508788E-33,-1.,-8.36929243327809E-17));
#435=DIRECTION('',(-2.64460116437887E-18,-2.76303160048883E-17,-1.));
#436=DIRECTION('',(-1.94717181877386E-33,-1.,0.));
#437=DIRECTION('',(-2.64460116437887E-18,-2.76303160048883E-17,-1.));
#438=DIRECTION('',(-1.92592994438724E-33,-1.,2.77555756156289E-17));
#439=DIRECTION('',(2.64460116437887E-18,2.76303160048883E-17,1.));
#440=DIRECTION('',(-1.50463276905253E-33,-1.,0.));
#441=DIRECTION('',(2.64460116437887E-18,2.76303160048883E-17,1.));
#442=DIRECTION('',(2.19016079333141E-33,1.,2.9167630924505E-17));
#443=DIRECTION('',(2.64460116437887E-18,2.76303160048883E-17,1.));
#444=DIRECTION('',(-1.50463276905253E-33,-1.,0.));
#445=DIRECTION('',(-2.64460116437887E-18,-2.76303160048883E-17,-1.));
#446=DIRECTION('',(-1.50463276905253E-33,-1.,0.));
#447=DIRECTION('',(2.64460116437887E-18,2.76303160048883E-17,1.));
#448=DIRECTION('',(1.76564960983849E-33,1.,1.07769992017949E-16));
#449=DIRECTION('',(-2.64460116437887E-18,-2.76303160048883E-17,-1.));
#450=DIRECTION('',(-2.01840981214363E-33,-1.,2.82068857882408E-17));
#451=DIRECTION('',(-2.64460116437887E-18,-2.76303160048883E-17,-1.));
#452=DIRECTION('',(-1.95724587844231E-33,-1.,0.));
#453=DIRECTION('',(-2.64460116437887E-18,-2.76303160048883E-17,-1.));
#454=DIRECTION('',(-1.56579670275385E-33,-1.,0.));
#455=DIRECTION('',(2.64460116437887E-18,2.76303160048883E-17,1.));
#456=DIRECTION('',(0.,-1.,0.));
#457=DIRECTION('',(-2.64460116437887E-18,-2.76303160048883E-17,-1.));
#458=DIRECTION('',(-2.01018937945418E-33,-1.,2.77555756156289E-17));
#459=DIRECTION('',(2.64460116437887E-18,2.76303160048883E-17,1.));
#460=DIRECTION('',(1.62115315184111E-33,1.,0.));
#461=DIRECTION('',(2.64460116437883E-18,-3.36020239524794E-17,1.));
#462=DIRECTION('',(4.25742150435056E-18,-1.,0.));
#463=DIRECTION('',(-2.64460116437887E-18,-2.76303160048883E-17,-1.));
#464=DIRECTION('',(2.02644143980139E-33,1.,0.));
#465=DIRECTION('',(2.64460116437887E-18,2.76303160048883E-17,1.));
#466=DIRECTION('',(2.02644143980139E-33,1.,0.));
#467=DIRECTION('',(2.64460116437887E-18,2.76303160048883E-17,1.));
#468=DIRECTION('',(0.,1.,-2.77555756156289E-17));
#469=DIRECTION('',(-2.64460116437887E-18,-2.76303160048883E-17,-1.));
#470=DIRECTION('',(-1.9590182402748E-33,-1.,-8.95174553130747E-17));
#471=DIRECTION('',(0.,0.,-1.));
#472=DIRECTION('',(1.,0.,0.));
#473=DIRECTION('',(0.,0.,1.));
#474=DIRECTION('',(1.,0.,0.));
#475=DIRECTION('',(0.87848941930447,0.477746686207715,-0.00380052465349534));
#476=DIRECTION('',(0.142464349296396,-0.25435654055559,0.956559804432607));
#477=CARTESIAN_POINT('',(0.,0.,0.));
#478=CARTESIAN_POINT('',(1.32230058219093E-19,1.38151580024619E-18,0.0500000000000084));
#479=CARTESIAN_POINT('',(1.32230058219078E-19,-7.3875,0.0500000000000086));
#480=CARTESIAN_POINT('',(1.32230058219093E-19,1.38151580024619E-18,0.0500000000000084));
#481=CARTESIAN_POINT('',(1.3223005821908E-19,-6.54527618313501,0.0500000000000086));
#482=CARTESIAN_POINT('',(-6.18950769701581,1.38151580024619E-18,0.0500000000000084));
#483=CARTESIAN_POINT('',(-2.54165285742654E-19,-2.65547306608365E-18,-0.0961072274966168));
#484=CARTESIAN_POINT('',(-2.54165285742665E-19,-5.50566924038403,-0.0961072274966167));
#485=CARTESIAN_POINT('',(-2.54165285742654E-19,-2.65547306608365E-18,-0.0961072274966168));
#486=CARTESIAN_POINT('',(7.93380349313825E-19,8.28909480146835E-18,0.300000000000012));
#487=CARTESIAN_POINT('',(7.93380349313815E-19,-5.05,0.300000000000012));
#488=CARTESIAN_POINT('',(7.93380349313825E-19,8.28909480146835E-18,0.300000000000012));
#489=CARTESIAN_POINT('',(3.31524514651433E-18,3.4637083377893E-17,1.25358983848623));
#490=CARTESIAN_POINT('',(3.31524514651432E-18,-5.05,1.25358983848623));
#491=CARTESIAN_POINT('',(6.31729103141004E-17,6.60019173566772E-16,23.8875));
#492=CARTESIAN_POINT('',(6.15280859598944E-18,6.42834345362283E-17,2.32655444566229));
#493=CARTESIAN_POINT('',(6.15280859598945E-18,5.3375,2.32655444566229));
#494=CARTESIAN_POINT('',(5.28920232875789E-18,5.52606320097784E-17,2.00000000000001));
#495=CARTESIAN_POINT('',(1.28883197875387E-17,1.34654840698971E-16,4.87344555433774));
#496=CARTESIAN_POINT('',(1.28883197875387E-17,-5.3375,4.87344555433774));
#497=CARTESIAN_POINT('',(6.31729103141004E-17,6.60019173566772E-16,23.8875));
#498=CARTESIAN_POINT('',(1.58676069862734E-17,1.65781896029332E-16,6.00000000000001));
#499=CARTESIAN_POINT('',(1.58676069862734E-17,-5.0356406460551,6.00000000000001));
#500=CARTESIAN_POINT('',(1.58676069862734E-17,1.65781896029332E-16,6.00000000000001));
#501=CARTESIAN_POINT('',(1.58676069862734E-17,1.65781896029332E-16,6.00000000000001));
#502=CARTESIAN_POINT('',(1.58676069862734E-17,-4.45,6.00000000000001));
#503=CARTESIAN_POINT('',(-4.45,1.65781896029332E-16,6.00000000000001));
#504=CARTESIAN_POINT('',(1.74543676849007E-17,1.82360085632265E-16,6.60000000000002));
#505=CARTESIAN_POINT('',(1.74543676849007E-17,-3.85,6.60000000000002));
#506=CARTESIAN_POINT('',(1.74543676849007E-17,1.82360085632265E-16,6.60000000000001));
#507=CARTESIAN_POINT('',(2.02242490433054E-17,2.11299306509734E-16,7.64737205583713));
#508=CARTESIAN_POINT('',(2.02242490433054E-17,-3.85,7.64737205583713));
#509=CARTESIAN_POINT('',(6.31729103141004E-17,6.60019173566772E-16,23.8875));
#510=CARTESIAN_POINT('',(2.10176293926191E-17,2.195884013112E-16,7.94737205583713));
#511=CARTESIAN_POINT('',(2.10176293926191E-17,-3.93038475772934,7.94737205583713));
#512=CARTESIAN_POINT('',(2.02242490433054E-17,2.11299306509734E-16,7.64737205583713));
#513=CARTESIAN_POINT('',(2.59170914109131E-17,2.70777096847907E-16,9.80000000000001));
#514=CARTESIAN_POINT('',(2.5917091410913E-17,-5.,9.80000000000001));
#515=CARTESIAN_POINT('',(2.59170914109131E-17,2.70777096847907E-16,9.80000000000001));
#516=CARTESIAN_POINT('',(4.24658128352488E-17,4.43675153685394E-16,16.0575490199569));
#517=CARTESIAN_POINT('',(4.24658128352488E-17,-5.,16.0575490199569));
#518=CARTESIAN_POINT('',(6.31729103141004E-17,6.60019173566772E-16,23.8875));
#519=CARTESIAN_POINT('',(5.15697227053881E-17,5.38791162095324E-16,19.5));
#520=CARTESIAN_POINT('',(5.15697227053881E-17,-3.0125,19.5));
#521=CARTESIAN_POINT('',(5.15697227053881E-17,5.38791162095324E-16,19.5));
#522=CARTESIAN_POINT('',(-2.64038591888714E-18,2.92403594156343E-15,19.5));
#523=CARTESIAN_POINT('',(-2.64038591888715E-18,-2.125,19.5));
#524=CARTESIAN_POINT('',(-1.2806979068448E-15,5.38791162095324E-16,19.5));
#525=CARTESIAN_POINT('',(-1.29543304599647E-17,2.81627770914437E-15,15.6));
#526=CARTESIAN_POINT('',(-1.29543304599647E-17,-0.999999999999997,15.6));
#527=CARTESIAN_POINT('',(-1.45433671526744E-17,2.79967574036575E-15,14.9991393809724));
#528=CARTESIAN_POINT('',(-1.29543304599647E-17,2.81627770914437E-15,15.6));
#529=CARTESIAN_POINT('',(-7.79354244915466E-18,2.87019669152008E-15,17.551442841485));
#530=CARTESIAN_POINT('',(-7.79354244915466E-18,-0.999999999999997,17.551442841485));
#531=CARTESIAN_POINT('',(-1.29543304599647E-17,2.81627770914437E-15,15.6));
#532=CARTESIAN_POINT('',(-2.64038591888714E-18,2.92403594156343E-15,19.5));
#533=CARTESIAN_POINT('',(-6.61150291094575E-19,-6.90757900122034E-18,-0.249999999999993));
#534=CARTESIAN_POINT('',(-6.61150291094591E-19,-7.6875,-0.249999999999993));
#535=CARTESIAN_POINT('',(-2.65782417020075E-17,-2.77684675849126E-16,-10.05));
#536=CARTESIAN_POINT('',(-2.65782417020075E-17,-7.6875,-10.05));
#537=CARTESIAN_POINT('',(-7.15496845022701E-17,-7.47538199512252E-16,-27.055));
#538=CARTESIAN_POINT('',(3.80601138969772E-14,4.25783210476299E-15,-34.2500000000003));
#539=CARTESIAN_POINT('',(3.80601138969772E-14,-1.71172427686185,-34.2500000000003));
#540=CARTESIAN_POINT('',(-9.05775898799768E-17,-9.46338323167431E-16,-34.2500000000003));
#541=CARTESIAN_POINT('',(-7.14703464673393E-17,-7.46709290032111E-16,-27.0250000000002));
#542=CARTESIAN_POINT('',(-7.14703464673393E-17,7.42499999999999,-27.0250000000002));
#543=CARTESIAN_POINT('',(3.80792211403898E-14,4.45746113789831E-15,-27.0250000000002));
#544=CARTESIAN_POINT('',(-2.65782417020075E-17,-2.77684675849126E-16,-10.05));
#545=CARTESIAN_POINT('',(-2.65782417020075E-17,7.42499999999997,-10.05));
#546=CARTESIAN_POINT('',(6.37279147937649E-18,6.65817760273839E-17,2.40973632062706));
#547=CARTESIAN_POINT('',(-8.9,-2.77684675849126E-16,-10.05));
#548=CARTESIAN_POINT('',(-6.61150291094575E-19,-6.90757900122034E-18,-0.249999999999993));
#549=CARTESIAN_POINT('',(0.00393918213344863,-0.00291605025743488,-25.3855126622829));
#550=CARTESIAN_POINT('',(7.80081471046253,-0.00291605025743488,-25.3855126622829));
#551=CARTESIAN_POINT('',(7.85839972401808,-0.843783307565984,-25.3855126622829));
#552=CARTESIAN_POINT('',(0.00393918213344863,-0.00291605025743488,-27.0376724595613));
#553=MECHANICAL_DESIGN_GEOMETRIC_PRESENTATION_REPRESENTATION('',(#33,#34),
#554);
#554=(
GEOMETRIC_REPRESENTATION_CONTEXT(3)
GLOBAL_UNCERTAINTY_ASSIGNED_CONTEXT((#555))
GLOBAL_UNIT_ASSIGNED_CONTEXT((#561,#557,#556))
REPRESENTATION_CONTEXT('115009220ndi000_00_16K3R035M10-CXP16-SIM',
'TOP_LEVEL_ASSEMBLY_PART')
);
#555=UNCERTAINTY_MEASURE_WITH_UNIT(LENGTH_MEASURE(2.E-5),#561,
'DISTANCE_ACCURACY_VALUE','Maximum Tolerance applied to model');
#556=(
NAMED_UNIT(*)
SI_UNIT($,.STERADIAN.)
SOLID_ANGLE_UNIT()
);
#557=(
CONVERSION_BASED_UNIT('DEGREE',#559)
NAMED_UNIT(#558)
PLANE_ANGLE_UNIT()
);
#558=DIMENSIONAL_EXPONENTS(0.,0.,0.,0.,0.,0.,0.);
#559=PLANE_ANGLE_MEASURE_WITH_UNIT(PLANE_ANGLE_MEASURE(0.0174532925),#560);
#560=(
NAMED_UNIT(*)
PLANE_ANGLE_UNIT()
SI_UNIT($,.RADIAN.)
);
#561=(
LENGTH_UNIT()
NAMED_UNIT(*)
SI_UNIT(.MILLI.,.METRE.)
);
ENDSEC;
END-ISO-10303-21;
