ISO-10303-21;
HEADER;
/* Generated by software containing ST-Developer
 * from STEP Tools, Inc. (www.steptools.com) 
 */
/* OPTION: using custom schema-name function */

FILE_DESCRIPTION(
/* description */ (''),
/* implementation_level */ '2;1');

FILE_NAME(
/* name */ '16K2R035A16-SRC16-A.stp',
/* time_stamp */ '2020-02-07T07:40:19+01:00',
/* author */ (''),
/* organization */ (''),
/* preprocessor_version */ 'ST-DEVELOPER v16.7',
/* originating_system */ 'SIEMENS PLM Software NX 12.0',
/* authorisation */ '');

FILE_SCHEMA (('AUTOMOTIVE_DESIGN { 1 0 10303 214 3 1 1 1 }'));
ENDSEC;

DATA;
#10=PROPERTY_DEFINITION_REPRESENTATION(#14,#12);
#11=PROPERTY_DEFINITION_REPRESENTATION(#15,#13);
#12=REPRESENTATION('',(#16),#403);
#13=REPRESENTATION('',(#17),#403);
#14=PROPERTY_DEFINITION('pmi validation property','',#21);
#15=PROPERTY_DEFINITION('pmi validation property','',#21);
#16=VALUE_REPRESENTATION_ITEM('number of annotations',COUNT_MEASURE(0.));
#17=VALUE_REPRESENTATION_ITEM('number of views',COUNT_MEASURE(0.));
#18=SHAPE_REPRESENTATION_RELATIONSHIP('None',
'relationship between pp07321CEE9Ebelk-None and pp07321CEE9Ebelk-None',
#30,#19);
#19=ADVANCED_BREP_SHAPE_REPRESENTATION('pp07321CEE9Ebelk-None',(#54,#55),
#403);
#20=SHAPE_DEFINITION_REPRESENTATION(#21,#30);
#21=PRODUCT_DEFINITION_SHAPE('','',#22);
#22=PRODUCT_DEFINITION(' ','',#24,#23);
#23=PRODUCT_DEFINITION_CONTEXT('part definition',#29,'design');
#24=PRODUCT_DEFINITION_FORMATION_WITH_SPECIFIED_SOURCE(' ',' ',#26,
 .NOT_KNOWN.);
#25=PRODUCT_RELATED_PRODUCT_CATEGORY('part','',(#26));
#26=PRODUCT('pp07321CEE9Ebelk','pp07321CEE9Ebelk',' ',(#27));
#27=PRODUCT_CONTEXT(' ',#29,'mechanical');
#28=APPLICATION_PROTOCOL_DEFINITION('international standard',
'automotive_design',2010,#29);
#29=APPLICATION_CONTEXT(
'core data for automotive mechanical design processes');
#30=SHAPE_REPRESENTATION('pp07321CEE9Ebelk-None',(#234),#403);
#31=CONICAL_SURFACE('',#253,7.,45.);
#32=TOROIDAL_SURFACE('',#252,11.,4.);
#33=SPHERICAL_SURFACE('',#251,7.);
#34=CYLINDRICAL_SURFACE('',#247,8.);
#35=CYLINDRICAL_SURFACE('',#250,7.);
#36=PRESENTATION_LAYER_ASSIGNMENT('96','Layer 96',(#54));
#37=PRESENTATION_LAYER_ASSIGNMENT('14','Layer 14',(#55));
#38=STYLED_ITEM('',(#40),#54);
#39=STYLED_ITEM('',(#41),#55);
#40=PRESENTATION_STYLE_ASSIGNMENT((#42));
#41=PRESENTATION_STYLE_ASSIGNMENT((#43));
#42=SURFACE_STYLE_USAGE(.BOTH.,#44);
#43=SURFACE_STYLE_USAGE(.BOTH.,#45);
#44=SURFACE_SIDE_STYLE('',(#46));
#45=SURFACE_SIDE_STYLE('',(#47));
#46=SURFACE_STYLE_FILL_AREA(#48);
#47=SURFACE_STYLE_FILL_AREA(#49);
#48=FILL_AREA_STYLE('',(#50));
#49=FILL_AREA_STYLE('',(#51));
#50=FILL_AREA_STYLE_COLOUR('',#52);
#51=FILL_AREA_STYLE_COLOUR('',#53);
#52=COLOUR_RGB('Light Gray',0.8,0.8,0.8);
#53=COLOUR_RGB('Silver Gray',0.6,0.6,0.6);
#54=MANIFOLD_SOLID_BREP('',#56);
#55=MANIFOLD_SOLID_BREP('',#57);
#56=CLOSED_SHELL('',(#116,#117,#118,#119,#120,#121,#122,#123,#124,#125));
#57=CLOSED_SHELL('',(#126,#127,#128,#129,#130,#131));
#58=VERTEX_LOOP('',#198);
#59=(
BOUNDED_CURVE()
B_SPLINE_CURVE(3,(#320,#321,#322,#323,#324,#325,#326),.UNSPECIFIED.,.T.,
 .F.)
B_SPLINE_CURVE_WITH_KNOTS((1,3,3,3,1),(-0.5,0.,0.5,1.,1.5),
 .UNSPECIFIED.)
CURVE()
GEOMETRIC_REPRESENTATION_ITEM()
RATIONAL_B_SPLINE_CURVE((1.,0.333333333333333,0.333333333333333,1.,0.333333333333333,
0.333333333333333,1.))
REPRESENTATION_ITEM('')
);
#60=(
BOUNDED_CURVE()
B_SPLINE_CURVE(3,(#362,#363,#364,#365,#366,#367,#368),.UNSPECIFIED.,.T.,
 .F.)
B_SPLINE_CURVE_WITH_KNOTS((1,3,3,3,1),(-0.5,0.,0.5,1.,1.5),
 .UNSPECIFIED.)
CURVE()
GEOMETRIC_REPRESENTATION_ITEM()
RATIONAL_B_SPLINE_CURVE((1.,0.333333333333333,0.333333333333333,1.,0.333333333333333,
0.333333333333333,1.))
REPRESENTATION_ITEM('')
);
#61=B_SPLINE_CURVE_WITH_KNOTS('',3,(#315,#316,#317,#318),.UNSPECIFIED.,
 .F.,.F.,(4,4),(0.,1.),.UNSPECIFIED.);
#62=B_SPLINE_CURVE_WITH_KNOTS('',3,(#328,#329,#330,#331,#332,#333,#334),
 .UNSPECIFIED.,.F.,.F.,(4,1,1,1,4),(0.,0.25,0.5,0.75,1.),.UNSPECIFIED.);
#63=B_SPLINE_CURVE_WITH_KNOTS('',3,(#343,#344,#345,#346),.UNSPECIFIED.,
 .F.,.F.,(4,4),(0.,1.),.UNSPECIFIED.);
#64=B_SPLINE_CURVE_WITH_KNOTS('',3,(#350,#351,#352,#353),.UNSPECIFIED.,
 .F.,.F.,(4,4),(0.,1.),.UNSPECIFIED.);
#65=B_SPLINE_CURVE_WITH_KNOTS('',3,(#357,#358,#359,#360),.UNSPECIFIED.,
 .F.,.F.,(4,4),(0.,1.),.UNSPECIFIED.);
#66=B_SPLINE_CURVE_WITH_KNOTS('',3,(#370,#371,#372,#373,#374,#375,#376),
 .UNSPECIFIED.,.F.,.F.,(4,3,4),(0.,0.0099009900990099,1.),.UNSPECIFIED.);
#67=B_SPLINE_CURVE_WITH_KNOTS('',3,(#378,#379,#380,#381,#382,#383,#384),
 .UNSPECIFIED.,.F.,.F.,(4,3,4),(0.,0.988534713970162,1.),.UNSPECIFIED.);
#68=SURFACE_OF_REVOLUTION('',#86,#77);
#69=SURFACE_OF_REVOLUTION('',#61,#78);
#70=SURFACE_OF_REVOLUTION('',#62,#79);
#71=SURFACE_OF_REVOLUTION('',#87,#80);
#72=SURFACE_OF_REVOLUTION('',#63,#81);
#73=SURFACE_OF_REVOLUTION('',#64,#82);
#74=SURFACE_OF_REVOLUTION('',#65,#83);
#75=SURFACE_OF_REVOLUTION('',#66,#84);
#76=SURFACE_OF_REVOLUTION('',#67,#85);
#77=AXIS1_PLACEMENT('',#312,#263);
#78=AXIS1_PLACEMENT('',#319,#266);
#79=AXIS1_PLACEMENT('',#335,#267);
#80=AXIS1_PLACEMENT('',#339,#271);
#81=AXIS1_PLACEMENT('',#347,#274);
#82=AXIS1_PLACEMENT('',#354,#277);
#83=AXIS1_PLACEMENT('',#361,#280);
#84=AXIS1_PLACEMENT('',#377,#281);
#85=AXIS1_PLACEMENT('',#385,#282);
#86=LINE('',#311,#88);
#87=LINE('',#338,#89);
#88=VECTOR('',#262,5.13465970941977);
#89=VECTOR('',#270,0.352938401490753);
#90=FACE_BOUND('',#138,.T.);
#91=FACE_BOUND('',#139,.T.);
#92=FACE_BOUND('',#140,.T.);
#93=FACE_BOUND('',#141,.T.);
#94=FACE_BOUND('',#142,.T.);
#95=FACE_BOUND('',#143,.T.);
#96=FACE_BOUND('',#144,.T.);
#97=FACE_BOUND('',#145,.T.);
#98=FACE_BOUND('',#58,.T.);
#99=FACE_BOUND('',#146,.T.);
#100=FACE_BOUND('',#147,.T.);
#101=FACE_BOUND('',#148,.T.);
#102=FACE_BOUND('',#149,.T.);
#103=FACE_BOUND('',#150,.T.);
#104=FACE_BOUND('',#151,.T.);
#105=FACE_BOUND('',#152,.T.);
#106=FACE_BOUND('',#153,.T.);
#107=FACE_BOUND('',#154,.T.);
#108=FACE_BOUND('',#156,.T.);
#109=FACE_BOUND('',#157,.T.);
#110=FACE_BOUND('',#158,.T.);
#111=FACE_BOUND('',#159,.T.);
#112=FACE_BOUND('',#161,.T.);
#113=FACE_BOUND('',#162,.T.);
#114=FACE_BOUND('',#163,.T.);
#115=FACE_BOUND('',#164,.T.);
#116=ADVANCED_FACE('',(#134),#132,.F.);
#117=ADVANCED_FACE('',(#90,#91),#68,.F.);
#118=ADVANCED_FACE('',(#92,#93),#69,.F.);
#119=ADVANCED_FACE('',(#94,#95),#70,.F.);
#120=ADVANCED_FACE('',(#96,#97),#71,.F.);
#121=ADVANCED_FACE('',(#98,#99),#72,.T.);
#122=ADVANCED_FACE('',(#100,#101),#73,.T.);
#123=ADVANCED_FACE('',(#102,#103),#74,.T.);
#124=ADVANCED_FACE('',(#104,#105),#75,.T.);
#125=ADVANCED_FACE('',(#106,#107),#76,.T.);
#126=ADVANCED_FACE('',(#135),#133,.F.);
#127=ADVANCED_FACE('',(#108,#109),#34,.T.);
#128=ADVANCED_FACE('',(#110,#111),#35,.T.);
#129=ADVANCED_FACE('',(#136),#33,.T.);
#130=ADVANCED_FACE('',(#112,#113),#32,.F.);
#131=ADVANCED_FACE('',(#114,#115),#31,.T.);
#132=PLANE('',#236);
#133=PLANE('',#244);
#134=FACE_OUTER_BOUND('',#137,.T.);
#135=FACE_OUTER_BOUND('',#155,.T.);
#136=FACE_OUTER_BOUND('',#160,.T.);
#137=EDGE_LOOP('',(#165));
#138=EDGE_LOOP('',(#166));
#139=EDGE_LOOP('',(#167));
#140=EDGE_LOOP('',(#168));
#141=EDGE_LOOP('',(#169));
#142=EDGE_LOOP('',(#170));
#143=EDGE_LOOP('',(#171));
#144=EDGE_LOOP('',(#172));
#145=EDGE_LOOP('',(#173));
#146=EDGE_LOOP('',(#174));
#147=EDGE_LOOP('',(#175));
#148=EDGE_LOOP('',(#176));
#149=EDGE_LOOP('',(#177));
#150=EDGE_LOOP('',(#178));
#151=EDGE_LOOP('',(#179));
#152=EDGE_LOOP('',(#180));
#153=EDGE_LOOP('',(#181));
#154=EDGE_LOOP('',(#182));
#155=EDGE_LOOP('',(#183));
#156=EDGE_LOOP('',(#184));
#157=EDGE_LOOP('',(#185));
#158=EDGE_LOOP('',(#186));
#159=EDGE_LOOP('',(#187));
#160=EDGE_LOOP('',(#188));
#161=EDGE_LOOP('',(#189));
#162=EDGE_LOOP('',(#190));
#163=EDGE_LOOP('',(#191));
#164=EDGE_LOOP('',(#192));
#165=ORIENTED_EDGE('',*,*,#208,.F.);
#166=ORIENTED_EDGE('',*,*,#208,.T.);
#167=ORIENTED_EDGE('',*,*,#209,.F.);
#168=ORIENTED_EDGE('',*,*,#209,.T.);
#169=ORIENTED_EDGE('',*,*,#210,.F.);
#170=ORIENTED_EDGE('',*,*,#210,.T.);
#171=ORIENTED_EDGE('',*,*,#211,.F.);
#172=ORIENTED_EDGE('',*,*,#211,.T.);
#173=ORIENTED_EDGE('',*,*,#212,.F.);
#174=ORIENTED_EDGE('',*,*,#213,.T.);
#175=ORIENTED_EDGE('',*,*,#213,.F.);
#176=ORIENTED_EDGE('',*,*,#214,.T.);
#177=ORIENTED_EDGE('',*,*,#214,.F.);
#178=ORIENTED_EDGE('',*,*,#215,.T.);
#179=ORIENTED_EDGE('',*,*,#215,.F.);
#180=ORIENTED_EDGE('',*,*,#216,.T.);
#181=ORIENTED_EDGE('',*,*,#216,.F.);
#182=ORIENTED_EDGE('',*,*,#212,.T.);
#183=ORIENTED_EDGE('',*,*,#217,.T.);
#184=ORIENTED_EDGE('',*,*,#218,.T.);
#185=ORIENTED_EDGE('',*,*,#219,.T.);
#186=ORIENTED_EDGE('',*,*,#220,.F.);
#187=ORIENTED_EDGE('',*,*,#221,.T.);
#188=ORIENTED_EDGE('',*,*,#221,.F.);
#189=ORIENTED_EDGE('',*,*,#220,.T.);
#190=ORIENTED_EDGE('',*,*,#219,.F.);
#191=ORIENTED_EDGE('',*,*,#218,.F.);
#192=ORIENTED_EDGE('',*,*,#217,.F.);
#193=VERTEX_POINT('',#307);
#194=VERTEX_POINT('',#310);
#195=VERTEX_POINT('',#314);
#196=VERTEX_POINT('',#327);
#197=VERTEX_POINT('',#337);
#198=VERTEX_POINT('',#340);
#199=VERTEX_POINT('',#342);
#200=VERTEX_POINT('',#349);
#201=VERTEX_POINT('',#356);
#202=VERTEX_POINT('',#369);
#203=VERTEX_POINT('',#387);
#204=VERTEX_POINT('',#390);
#205=VERTEX_POINT('',#392);
#206=VERTEX_POINT('',#395);
#207=VERTEX_POINT('',#397);
#208=EDGE_CURVE('',#193,#193,#222,.T.);
#209=EDGE_CURVE('',#194,#194,#223,.T.);
#210=EDGE_CURVE('',#195,#195,#224,.T.);
#211=EDGE_CURVE('',#196,#196,#59,.T.);
#212=EDGE_CURVE('',#197,#197,#225,.T.);
#213=EDGE_CURVE('',#199,#199,#226,.T.);
#214=EDGE_CURVE('',#200,#200,#227,.T.);
#215=EDGE_CURVE('',#201,#201,#228,.T.);
#216=EDGE_CURVE('',#202,#202,#60,.T.);
#217=EDGE_CURVE('',#203,#203,#229,.T.);
#218=EDGE_CURVE('',#204,#204,#230,.T.);
#219=EDGE_CURVE('',#205,#205,#231,.T.);
#220=EDGE_CURVE('',#206,#206,#232,.T.);
#221=EDGE_CURVE('',#207,#207,#233,.T.);
#222=CIRCLE('',#235,7.53157276804627);
#223=CIRCLE('',#237,7.97062095959318);
#224=CIRCLE('',#238,7.99999112679063);
#225=CIRCLE('',#239,3.30380938125451);
#226=CIRCLE('',#240,0.971627709326753);
#227=CIRCLE('',#241,1.07784020249242);
#228=CIRCLE('',#242,1.41115411761281);
#229=CIRCLE('',#243,7.);
#230=CIRCLE('',#245,8.);
#231=CIRCLE('',#246,8.);
#232=CIRCLE('',#248,7.);
#233=CIRCLE('',#249,7.);
#234=AXIS2_PLACEMENT_3D('',#305,#254,#255);
#235=AXIS2_PLACEMENT_3D('',#306,#256,#257);
#236=AXIS2_PLACEMENT_3D('',#308,#258,#259);
#237=AXIS2_PLACEMENT_3D('',#309,#260,#261);
#238=AXIS2_PLACEMENT_3D('',#313,#264,#265);
#239=AXIS2_PLACEMENT_3D('',#336,#268,#269);
#240=AXIS2_PLACEMENT_3D('',#341,#272,#273);
#241=AXIS2_PLACEMENT_3D('',#348,#275,#276);
#242=AXIS2_PLACEMENT_3D('',#355,#278,#279);
#243=AXIS2_PLACEMENT_3D('',#386,#283,#284);
#244=AXIS2_PLACEMENT_3D('',#388,#285,#286);
#245=AXIS2_PLACEMENT_3D('',#389,#287,#288);
#246=AXIS2_PLACEMENT_3D('',#391,#289,#290);
#247=AXIS2_PLACEMENT_3D('',#393,#291,#292);
#248=AXIS2_PLACEMENT_3D('',#394,#293,#294);
#249=AXIS2_PLACEMENT_3D('',#396,#295,#296);
#250=AXIS2_PLACEMENT_3D('',#398,#297,#298);
#251=AXIS2_PLACEMENT_3D('',#399,#299,#300);
#252=AXIS2_PLACEMENT_3D('',#400,#301,#302);
#253=AXIS2_PLACEMENT_3D('',#401,#303,#304);
#254=DIRECTION('',(0.,0.,1.));
#255=DIRECTION('',(1.,0.,0.));
#256=DIRECTION('',(-1.,0.,0.));
#257=DIRECTION('',(0.,0.,-1.));
#258=DIRECTION('',(-1.,0.,0.));
#259=DIRECTION('',(0.,0.,-1.));
#260=DIRECTION('',(-1.,0.,0.));
#261=DIRECTION('',(0.,0.,-1.));
#262=DIRECTION('',(0.996194698091762,0.0871557427474727,0.));
#263=DIRECTION('',(-1.,0.,0.));
#264=DIRECTION('',(-1.,0.,0.));
#265=DIRECTION('',(0.,0.,-1.));
#266=DIRECTION('',(-1.,0.,0.));
#267=DIRECTION('',(-1.,0.,0.));
#268=DIRECTION('',(-1.,0.,0.));
#269=DIRECTION('',(0.,0.,-1.));
#270=DIRECTION('',(0.41193901157107,-0.911211419345615,0.));
#271=DIRECTION('',(-1.,0.,0.));
#272=DIRECTION('',(-1.,0.,0.));
#273=DIRECTION('',(0.,0.,-1.));
#274=DIRECTION('',(-1.,0.,0.));
#275=DIRECTION('',(-1.,0.,0.));
#276=DIRECTION('',(0.,0.,-1.));
#277=DIRECTION('',(-1.,0.,0.));
#278=DIRECTION('',(-1.,0.,0.));
#279=DIRECTION('',(0.,0.,-1.));
#280=DIRECTION('',(-1.,0.,0.));
#281=DIRECTION('',(-1.,0.,0.));
#282=DIRECTION('',(-1.,0.,0.));
#283=DIRECTION('',(1.,0.,0.));
#284=DIRECTION('',(0.,0.,1.));
#285=DIRECTION('',(-1.,0.,0.));
#286=DIRECTION('',(0.,0.,1.));
#287=DIRECTION('',(-1.,0.,0.));
#288=DIRECTION('',(0.,0.,1.));
#289=DIRECTION('',(1.,0.,0.));
#290=DIRECTION('',(0.,0.,-1.));
#291=DIRECTION('',(1.,0.,0.));
#292=DIRECTION('',(0.,0.,-1.));
#293=DIRECTION('',(1.,0.,0.));
#294=DIRECTION('',(0.,0.,-1.));
#295=DIRECTION('',(1.,0.,0.));
#296=DIRECTION('',(0.,0.,-1.));
#297=DIRECTION('',(1.,0.,0.));
#298=DIRECTION('',(0.,0.,-1.));
#299=DIRECTION('',(0.,0.,1.));
#300=DIRECTION('',(1.,0.,0.));
#301=DIRECTION('',(1.,0.,0.));
#302=DIRECTION('',(0.,0.,-1.));
#303=DIRECTION('',(-1.,0.,0.));
#304=DIRECTION('',(0.,0.,1.));
#305=CARTESIAN_POINT('',(0.,0.,0.));
#306=CARTESIAN_POINT('',(13.799999999999,0.,5.41788836017076E-14));
#307=CARTESIAN_POINT('',(13.799999999999,0.,-7.53157276804622));
#308=CARTESIAN_POINT('',(13.799999999999,0.,5.41788836017076E-14));
#309=CARTESIAN_POINT('',(8.68487922096962,0.,5.41788836017076E-14));
#310=CARTESIAN_POINT('',(8.68487922096962,0.,-7.97062095959313));
#311=CARTESIAN_POINT('',(8.68487922096962,-7.82820531677,1.50000000000006));
#312=CARTESIAN_POINT('',(8.,0.,5.41788836017076E-14));
#313=CARTESIAN_POINT('',(7.99999999999857,0.,5.41788836017076E-14));
#314=CARTESIAN_POINT('',(7.99999999999857,0.,-7.99999112679058));
#315=CARTESIAN_POINT('',(7.99999999999857,-7.85810778933,1.50000000000006));
#316=CARTESIAN_POINT('',(8.22858313891861,-7.85810919491999,1.50000000000006));
#317=CARTESIAN_POINT('',(8.45716603240858,-7.84812905024001,1.50000000000006));
#318=CARTESIAN_POINT('',(8.68487922096962,-7.82820531677,1.50000000000006));
#319=CARTESIAN_POINT('',(8.,0.,5.41788836017076E-14));
#320=CARTESIAN_POINT('',(0.852343301944624,-1.0842021724855E-15,-3.59332121245353));
#321=CARTESIAN_POINT('',(0.852343301944624,-7.18664242490717,-3.59332121245353));
#322=CARTESIAN_POINT('',(0.852343301944625,-7.18664242490717,3.59332121245364));
#323=CARTESIAN_POINT('',(0.852343301944624,1.51788304147971E-15,3.59332121245364));
#324=CARTESIAN_POINT('',(0.852343301944623,7.18664242490717,3.59332121245364));
#325=CARTESIAN_POINT('',(0.852343301944623,7.18664242490717,-3.59332121245353));
#326=CARTESIAN_POINT('',(0.852343301944624,-1.0842021724855E-15,-3.59332121245353));
#327=CARTESIAN_POINT('',(0.852370153771843,1.76724954115137E-14,-3.59330785372317));
#328=CARTESIAN_POINT('',(0.852397005599061,-3.26523587628,1.50000000000006));
#329=CARTESIAN_POINT('',(1.16303418107822,-3.94536764126815,1.50000000000006));
#330=CARTESIAN_POINT('',(1.97998762365399,-5.21630676574884,1.50000000000006));
#331=CARTESIAN_POINT('',(3.69310251268933,-6.70098822179478,1.50000000000006));
#332=CARTESIAN_POINT('',(5.7556544222819,-7.64278395907301,1.50000000000006));
#333=CARTESIAN_POINT('',(7.2518038292507,-7.85845703782566,1.50000000000006));
#334=CARTESIAN_POINT('',(7.99999999999857,-7.85810778933,1.50000000000006));
#335=CARTESIAN_POINT('',(8.,0.,5.41788836017076E-14));
#336=CARTESIAN_POINT('',(0.70695420568905,0.,5.41788836017076E-14));
#337=CARTESIAN_POINT('',(0.70695420568905,0.,-3.30380938125445));
#338=CARTESIAN_POINT('',(0.70695420568905,-2.94366377626,1.50000000000006));
#339=CARTESIAN_POINT('',(8.,0.,5.41788836017076E-14));
#340=CARTESIAN_POINT('',(0.,-1.38337420945572E-14,2.89213585805831E-13));
#341=CARTESIAN_POINT('',(0.058587715777509,0.,5.41788836017076E-14));
#342=CARTESIAN_POINT('',(0.058587715777509,0.,-0.971627709326699));
#343=CARTESIAN_POINT('',(0.058587715777509,-0.8463923586103,0.47715865371771));
#344=CARTESIAN_POINT('',(0.0327439240907414,-0.599244048707581,0.266677861207666));
#345=CARTESIAN_POINT('',(0.0108157970600091,-0.316065429938331,0.0880875981521686));
#346=CARTESIAN_POINT('',(0.,-1.38337420945572E-14,2.89213585805831E-13));
#347=CARTESIAN_POINT('',(8.,0.,5.41788836017076E-14));
#348=CARTESIAN_POINT('',(0.0673453348502499,0.,5.41788836017076E-14));
#349=CARTESIAN_POINT('',(0.0673453348502499,0.,-1.07784020249236));
#350=CARTESIAN_POINT('',(0.0673453348470701,-0.9278497141355,0.548483737304637));
#351=CARTESIAN_POINT('',(0.0643801462674801,-0.901029158961442,0.52433421428817));
#352=CARTESIAN_POINT('',(0.06146093991094,-0.87387670711972,0.500559186425641));
#353=CARTESIAN_POINT('',(0.058587715777509,-0.8463923586103,0.47715865371771));
#354=CARTESIAN_POINT('',(8.,0.,5.41788836017076E-14));
#355=CARTESIAN_POINT('',(0.125497019952351,0.,5.41788836017076E-14));
#356=CARTESIAN_POINT('',(0.125497019952351,0.,-1.41115411761275));
#357=CARTESIAN_POINT('',(0.125497019952351,-1.23184949443306,0.688405960695186));
#358=CARTESIAN_POINT('',(0.10368751399681,-1.13098760928509,0.641747486373297));
#359=CARTESIAN_POINT('',(0.0843036189670399,-1.02965434917728,0.595106745239793));
#360=CARTESIAN_POINT('',(0.0673453348502499,-0.927849714135346,0.548483737304863));
#361=CARTESIAN_POINT('',(8.,0.,5.41788836017076E-14));
#362=CARTESIAN_POINT('',(0.41052951585144,-2.18017759730292,1.1345617840488));
#363=CARTESIAN_POINT('',(0.41052951585144,0.0889459707945762,5.49491697865465));
#364=CARTESIAN_POINT('',(0.41052951585144,4.44930116540042,3.22579341055715));
#365=CARTESIAN_POINT('',(0.41052951585144,2.18017759730292,-1.1345617840487));
#366=CARTESIAN_POINT('',(0.41052951585144,-0.0889459707945758,-5.49491697865454));
#367=CARTESIAN_POINT('',(0.41052951585144,-4.44930116540042,-3.22579341055704));
#368=CARTESIAN_POINT('',(0.41052951585144,-2.18017759730292,1.1345617840488));
#369=CARTESIAN_POINT('',(0.41052686725937,-2.18017842771899,1.13456221619632));
#370=CARTESIAN_POINT('',(0.4106951027927,-2.1806065348477,1.13476623640594));
#371=CARTESIAN_POINT('',(0.409511957560401,-2.17754402867642,1.13330093087615));
#372=CARTESIAN_POINT('',(0.40832881232809,-2.17448152250514,1.13183562534637));
#373=CARTESIAN_POINT('',(0.40714566709578,-2.17141901633386,1.13037031981659));
#374=CARTESIAN_POINT('',(0.288831143865129,-1.86516839920579,0.98383976683831));
#375=CARTESIAN_POINT('',(0.19494826148814,-1.55197855857146,0.836518313797906));
#376=CARTESIAN_POINT('',(0.125497019952351,-1.23184949443306,0.688405960695186));
#377=CARTESIAN_POINT('',(8.,0.,5.41788836017076E-14));
#378=CARTESIAN_POINT('',(0.70695420569453,-2.94366377626449,1.50000000000111));
#379=CARTESIAN_POINT('',(0.609382210652281,-2.69204943407828,1.37957698299342));
#380=CARTESIAN_POINT('',(0.51170629136626,-2.44047221913288,1.25916069709662));
#381=CARTESIAN_POINT('',(0.4139264478203,-2.18893213143767,1.13875114231334));
#382=CARTESIAN_POINT('',(0.412792371435971,-2.18601470323546,1.13735460057656));
#383=CARTESIAN_POINT('',(0.41165829505163,-2.18309727503326,1.13595805883977));
#384=CARTESIAN_POINT('',(0.4105242186673,-2.18017984683105,1.13456151710299));
#385=CARTESIAN_POINT('',(8.,0.,5.41788836017076E-14));
#386=CARTESIAN_POINT('',(140.,0.,0.));
#387=CARTESIAN_POINT('',(140.,0.,7.));
#388=CARTESIAN_POINT('',(140.,-8.,0.));
#389=CARTESIAN_POINT('',(139.,0.,0.));
#390=CARTESIAN_POINT('',(139.,0.,8.));
#391=CARTESIAN_POINT('',(35.,0.,0.));
#392=CARTESIAN_POINT('',(35.,0.,-8.));
#393=CARTESIAN_POINT('',(0.,0.,0.));
#394=CARTESIAN_POINT('',(32.3542486889354,0.,0.));
#395=CARTESIAN_POINT('',(32.3542486889354,0.,-7.));
#396=CARTESIAN_POINT('',(8.,0.,0.));
#397=CARTESIAN_POINT('',(8.,0.,-7.));
#398=CARTESIAN_POINT('',(0.,0.,0.));
#399=CARTESIAN_POINT('',(8.,0.,0.));
#400=CARTESIAN_POINT('',(32.3542486889354,0.,0.));
#401=CARTESIAN_POINT('',(140.,0.,0.));
#402=MECHANICAL_DESIGN_GEOMETRIC_PRESENTATION_REPRESENTATION('',(#38,#39),
#403);
#403=(
GEOMETRIC_REPRESENTATION_CONTEXT(3)
GLOBAL_UNCERTAINTY_ASSIGNED_CONTEXT((#404))
GLOBAL_UNIT_ASSIGNED_CONTEXT((#410,#406,#405))
REPRESENTATION_CONTEXT('16K2R035A16-SRC16-A','TOP_LEVEL_ASSEMBLY_PART')
);
#404=UNCERTAINTY_MEASURE_WITH_UNIT(LENGTH_MEASURE(0.0508),#410,
'DISTANCE_ACCURACY_VALUE','Maximum Tolerance applied to model');
#405=(
NAMED_UNIT(*)
SI_UNIT($,.STERADIAN.)
SOLID_ANGLE_UNIT()
);
#406=(
CONVERSION_BASED_UNIT('DEGREE',#408)
NAMED_UNIT(#407)
PLANE_ANGLE_UNIT()
);
#407=DIMENSIONAL_EXPONENTS(0.,0.,0.,0.,0.,0.,0.);
#408=PLANE_ANGLE_MEASURE_WITH_UNIT(PLANE_ANGLE_MEASURE(0.0174532925),#409);
#409=(
NAMED_UNIT(*)
PLANE_ANGLE_UNIT()
SI_UNIT($,.RADIAN.)
);
#410=(
LENGTH_UNIT()
NAMED_UNIT(*)
SI_UNIT(.MILLI.,.METRE.)
);
ENDSEC;
END-ISO-10303-21;
