ISO-10303-21;
HEADER;
/* Generated by software containing ST-Developer
 * from STEP Tools, Inc. (www.steptools.com) 
 */
/* OPTION: using custom schema-name function */

FILE_DESCRIPTION(
/* description */ (''),
/* implementation_level */ '2;1');

FILE_NAME(
/* name */ '16K2R035A16-SLC16-A-SIM.stp',
/* time_stamp */ '2020-02-05T09:22:41+01:00',
/* author */ (''),
/* organization */ (''),
/* preprocessor_version */ 'ST-DEVELOPER v16.7',
/* originating_system */ 'SIEMENS PLM Software NX 12.0',
/* authorisation */ '');

FILE_SCHEMA (('AUTOMOTIVE_DESIGN { 1 0 10303 214 3 1 1 1 }'));
ENDSEC;

DATA;
#10=PROPERTY_DEFINITION_REPRESENTATION(#14,#12);
#11=PROPERTY_DEFINITION_REPRESENTATION(#15,#13);
#12=REPRESENTATION('',(#16),#257);
#13=REPRESENTATION('',(#17),#257);
#14=PROPERTY_DEFINITION('pmi validation property','',#21);
#15=PROPERTY_DEFINITION('pmi validation property','',#21);
#16=VALUE_REPRESENTATION_ITEM('number of annotations',COUNT_MEASURE(0.));
#17=VALUE_REPRESENTATION_ITEM('number of views',COUNT_MEASURE(0.));
#18=SHAPE_REPRESENTATION_RELATIONSHIP('None',
'relationship between hm1532102F367oou-None and hm1532102F367oou-None',
#30,#19);
#19=ADVANCED_BREP_SHAPE_REPRESENTATION('hm1532102F367oou-None',(#51,#52),
#257);
#20=SHAPE_DEFINITION_REPRESENTATION(#21,#30);
#21=PRODUCT_DEFINITION_SHAPE('','',#22);
#22=PRODUCT_DEFINITION(' ','',#24,#23);
#23=PRODUCT_DEFINITION_CONTEXT('part definition',#29,'design');
#24=PRODUCT_DEFINITION_FORMATION_WITH_SPECIFIED_SOURCE(' ',' ',#26,
 .NOT_KNOWN.);
#25=PRODUCT_RELATED_PRODUCT_CATEGORY('part','',(#26));
#26=PRODUCT('hm1532102F367oou','hm1532102F367oou',' ',(#27));
#27=PRODUCT_CONTEXT(' ',#29,'mechanical');
#28=APPLICATION_PROTOCOL_DEFINITION('international standard',
'automotive_design',2010,#29);
#29=APPLICATION_CONTEXT(
'core data for automotive mechanical design processes');
#30=SHAPE_REPRESENTATION('hm1532102F367oou-None',(#161),#257);
#31=TOROIDAL_SURFACE('',#177,11.,4.);
#32=TOROIDAL_SURFACE('',#180,6.,1.);
#33=PRESENTATION_LAYER_ASSIGNMENT('96','Layer 96',(#51));
#34=PRESENTATION_LAYER_ASSIGNMENT('14','Layer 14',(#52));
#35=STYLED_ITEM('',(#37),#51);
#36=STYLED_ITEM('',(#38),#52);
#37=PRESENTATION_STYLE_ASSIGNMENT((#39));
#38=PRESENTATION_STYLE_ASSIGNMENT((#40));
#39=SURFACE_STYLE_USAGE(.BOTH.,#41);
#40=SURFACE_STYLE_USAGE(.BOTH.,#42);
#41=SURFACE_SIDE_STYLE('',(#43));
#42=SURFACE_SIDE_STYLE('',(#44));
#43=SURFACE_STYLE_FILL_AREA(#45);
#44=SURFACE_STYLE_FILL_AREA(#46);
#45=FILL_AREA_STYLE('',(#47));
#46=FILL_AREA_STYLE('',(#48));
#47=FILL_AREA_STYLE_COLOUR('',#49);
#48=FILL_AREA_STYLE_COLOUR('',#50);
#49=COLOUR_RGB('Light Gray',0.8,0.8,0.8);
#50=COLOUR_RGB('Medium Gray',0.499992370489052,0.499992370489052,0.499992370489052);
#51=MANIFOLD_SOLID_BREP('',#53);
#52=MANIFOLD_SOLID_BREP('',#54);
#53=CLOSED_SHELL('',(#78,#79,#80,#81,#82));
#54=CLOSED_SHELL('',(#83,#84,#85,#86,#87,#88));
#55=CYLINDRICAL_SURFACE('',#169,8.13941029804985);
#56=CYLINDRICAL_SURFACE('',#173,8.);
#57=CYLINDRICAL_SURFACE('',#176,7.);
#58=SURFACE_OF_REVOLUTION('',#62,#60);
#59=SURFACE_OF_REVOLUTION('',#155,#61);
#60=AXIS1_PLACEMENT('',#234,#194);
#61=AXIS1_PLACEMENT('',#238,#199);
#62=LINE('',#233,#63);
#63=VECTOR('',#193,2.77820230873379);
#64=FACE_BOUND('',#99,.T.);
#65=FACE_BOUND('',#100,.T.);
#66=FACE_BOUND('',#101,.T.);
#67=FACE_BOUND('',#102,.T.);
#68=FACE_BOUND('',#103,.T.);
#69=FACE_BOUND('',#104,.T.);
#70=FACE_BOUND('',#106,.T.);
#71=FACE_BOUND('',#107,.T.);
#72=FACE_BOUND('',#108,.T.);
#73=FACE_BOUND('',#109,.T.);
#74=FACE_BOUND('',#110,.T.);
#75=FACE_BOUND('',#111,.T.);
#76=FACE_BOUND('',#113,.T.);
#77=FACE_BOUND('',#114,.T.);
#78=ADVANCED_FACE('',(#93),#89,.T.);
#79=ADVANCED_FACE('',(#94),#90,.F.);
#80=ADVANCED_FACE('',(#64,#65),#58,.F.);
#81=ADVANCED_FACE('',(#66,#67),#59,.F.);
#82=ADVANCED_FACE('',(#68,#69),#55,.T.);
#83=ADVANCED_FACE('',(#95),#91,.F.);
#84=ADVANCED_FACE('',(#70,#71),#56,.T.);
#85=ADVANCED_FACE('',(#72,#73),#57,.T.);
#86=ADVANCED_FACE('',(#74,#75),#31,.F.);
#87=ADVANCED_FACE('',(#96),#92,.T.);
#88=ADVANCED_FACE('',(#76,#77),#32,.T.);
#89=PLANE('',#163);
#90=PLANE('',#165);
#91=PLANE('',#171);
#92=PLANE('',#179);
#93=FACE_OUTER_BOUND('',#97,.T.);
#94=FACE_OUTER_BOUND('',#98,.T.);
#95=FACE_OUTER_BOUND('',#105,.T.);
#96=FACE_OUTER_BOUND('',#112,.T.);
#97=EDGE_LOOP('',(#115));
#98=EDGE_LOOP('',(#116));
#99=EDGE_LOOP('',(#117));
#100=EDGE_LOOP('',(#118));
#101=EDGE_LOOP('',(#119));
#102=EDGE_LOOP('',(#120));
#103=EDGE_LOOP('',(#121));
#104=EDGE_LOOP('',(#122));
#105=EDGE_LOOP('',(#123));
#106=EDGE_LOOP('',(#124));
#107=EDGE_LOOP('',(#125));
#108=EDGE_LOOP('',(#126));
#109=EDGE_LOOP('',(#127));
#110=EDGE_LOOP('',(#128));
#111=EDGE_LOOP('',(#129));
#112=EDGE_LOOP('',(#130));
#113=EDGE_LOOP('',(#131));
#114=EDGE_LOOP('',(#132));
#115=ORIENTED_EDGE('',*,*,#142,.T.);
#116=ORIENTED_EDGE('',*,*,#143,.F.);
#117=ORIENTED_EDGE('',*,*,#143,.T.);
#118=ORIENTED_EDGE('',*,*,#144,.F.);
#119=ORIENTED_EDGE('',*,*,#144,.T.);
#120=ORIENTED_EDGE('',*,*,#145,.F.);
#121=ORIENTED_EDGE('',*,*,#145,.T.);
#122=ORIENTED_EDGE('',*,*,#142,.F.);
#123=ORIENTED_EDGE('',*,*,#146,.T.);
#124=ORIENTED_EDGE('',*,*,#146,.F.);
#125=ORIENTED_EDGE('',*,*,#147,.T.);
#126=ORIENTED_EDGE('',*,*,#148,.T.);
#127=ORIENTED_EDGE('',*,*,#149,.F.);
#128=ORIENTED_EDGE('',*,*,#149,.T.);
#129=ORIENTED_EDGE('',*,*,#147,.F.);
#130=ORIENTED_EDGE('',*,*,#150,.T.);
#131=ORIENTED_EDGE('',*,*,#150,.F.);
#132=ORIENTED_EDGE('',*,*,#148,.F.);
#133=VERTEX_POINT('',#226);
#134=VERTEX_POINT('',#229);
#135=VERTEX_POINT('',#232);
#136=VERTEX_POINT('',#236);
#137=VERTEX_POINT('',#241);
#138=VERTEX_POINT('',#244);
#139=VERTEX_POINT('',#247);
#140=VERTEX_POINT('',#249);
#141=VERTEX_POINT('',#253);
#142=EDGE_CURVE('',#133,#133,#151,.T.);
#143=EDGE_CURVE('',#134,#134,#152,.T.);
#144=EDGE_CURVE('',#135,#135,#153,.T.);
#145=EDGE_CURVE('',#136,#136,#154,.T.);
#146=EDGE_CURVE('',#137,#137,#156,.T.);
#147=EDGE_CURVE('',#138,#138,#157,.T.);
#148=EDGE_CURVE('',#139,#139,#158,.T.);
#149=EDGE_CURVE('',#140,#140,#159,.T.);
#150=EDGE_CURVE('',#141,#141,#160,.T.);
#151=CIRCLE('',#162,8.13941029804985);
#152=CIRCLE('',#164,4.10308100084069);
#153=CIRCLE('',#166,6.75533747565881);
#154=CIRCLE('',#167,8.13941029804985);
#155=CIRCLE('',#168,1.3);
#156=CIRCLE('',#170,8.);
#157=CIRCLE('',#172,8.);
#158=CIRCLE('',#174,7.);
#159=CIRCLE('',#175,7.);
#160=CIRCLE('',#178,6.);
#161=AXIS2_PLACEMENT_3D('',#224,#181,#182);
#162=AXIS2_PLACEMENT_3D('',#225,#183,#184);
#163=AXIS2_PLACEMENT_3D('',#227,#185,#186);
#164=AXIS2_PLACEMENT_3D('',#228,#187,#188);
#165=AXIS2_PLACEMENT_3D('',#230,#189,#190);
#166=AXIS2_PLACEMENT_3D('',#231,#191,#192);
#167=AXIS2_PLACEMENT_3D('',#235,#195,#196);
#168=AXIS2_PLACEMENT_3D('',#237,#197,#198);
#169=AXIS2_PLACEMENT_3D('',#239,#200,#201);
#170=AXIS2_PLACEMENT_3D('',#240,#202,#203);
#171=AXIS2_PLACEMENT_3D('',#242,#204,#205);
#172=AXIS2_PLACEMENT_3D('',#243,#206,#207);
#173=AXIS2_PLACEMENT_3D('',#245,#208,#209);
#174=AXIS2_PLACEMENT_3D('',#246,#210,#211);
#175=AXIS2_PLACEMENT_3D('',#248,#212,#213);
#176=AXIS2_PLACEMENT_3D('',#250,#214,#215);
#177=AXIS2_PLACEMENT_3D('',#251,#216,#217);
#178=AXIS2_PLACEMENT_3D('',#252,#218,#219);
#179=AXIS2_PLACEMENT_3D('',#254,#220,#221);
#180=AXIS2_PLACEMENT_3D('',#255,#222,#223);
#181=DIRECTION('',(0.,0.,1.));
#182=DIRECTION('',(1.,0.,0.));
#183=DIRECTION('',(1.,0.,0.));
#184=DIRECTION('',(0.,0.,-1.));
#185=DIRECTION('',(1.,0.,0.));
#186=DIRECTION('',(0.,0.,-1.));
#187=DIRECTION('',(1.,0.,0.));
#188=DIRECTION('',(0.,0.,-1.));
#189=DIRECTION('',(1.,0.,0.));
#190=DIRECTION('',(0.,0.,-1.));
#191=DIRECTION('',(1.,0.,0.));
#192=DIRECTION('',(0.,0.,-1.));
#193=DIRECTION('',(0.0871557427476579,0.996194698091746,0.));
#194=DIRECTION('',(1.,0.,0.));
#195=DIRECTION('',(1.,0.,0.));
#196=DIRECTION('',(0.,0.,-1.));
#197=DIRECTION('',(0.,0.,-1.));
#198=DIRECTION('',(1.,1.22464679914735E-16,0.));
#199=DIRECTION('',(1.,0.,0.));
#200=DIRECTION('',(1.,0.,0.));
#201=DIRECTION('',(0.,0.,-1.));
#202=DIRECTION('',(1.,0.,0.));
#203=DIRECTION('',(0.,0.,-1.));
#204=DIRECTION('',(-1.,0.,0.));
#205=DIRECTION('',(0.,0.,1.));
#206=DIRECTION('',(1.,0.,0.));
#207=DIRECTION('',(0.,0.,-1.));
#208=DIRECTION('',(1.,0.,0.));
#209=DIRECTION('',(0.,0.,-1.));
#210=DIRECTION('',(1.,0.,0.));
#211=DIRECTION('',(0.,0.,1.));
#212=DIRECTION('',(1.,0.,0.));
#213=DIRECTION('',(0.,0.,-1.));
#214=DIRECTION('',(1.,0.,0.));
#215=DIRECTION('',(0.,0.,-1.));
#216=DIRECTION('',(1.,0.,0.));
#217=DIRECTION('',(0.,0.,-1.));
#218=DIRECTION('',(-1.,0.,0.));
#219=DIRECTION('',(0.,0.,1.));
#220=DIRECTION('',(-1.,0.,0.));
#221=DIRECTION('',(0.,0.,1.));
#222=DIRECTION('',(-1.,0.,0.));
#223=DIRECTION('',(0.,0.,1.));
#224=CARTESIAN_POINT('',(0.,0.,0.));
#225=CARTESIAN_POINT('',(15.6,0.,0.));
#226=CARTESIAN_POINT('',(15.6,0.,-8.13941029804985));
#227=CARTESIAN_POINT('',(15.6,0.,0.));
#228=CARTESIAN_POINT('',(0.247083178201682,0.,0.));
#229=CARTESIAN_POINT('',(0.247083178201682,0.,-4.10308100084069));
#230=CARTESIAN_POINT('',(0.247083178201682,0.,0.));
#231=CARTESIAN_POINT('',(0.00494689248073063,0.,0.));
#232=CARTESIAN_POINT('',(0.00494689248073063,0.,-6.75533747565881));
#233=CARTESIAN_POINT('',(0.00494689248073074,-6.58669753442804,1.5));
#234=CARTESIAN_POINT('',(0.,0.,0.));
#235=CARTESIAN_POINT('',(1.3,0.,0.));
#236=CARTESIAN_POINT('',(1.3,0.,-8.13941029804985));
#237=CARTESIAN_POINT('',(1.3,-6.7,1.5));
#238=CARTESIAN_POINT('',(0.,0.,0.));
#239=CARTESIAN_POINT('',(0.,0.,0.));
#240=CARTESIAN_POINT('',(140.,0.,0.));
#241=CARTESIAN_POINT('',(140.,0.,-8.));
#242=CARTESIAN_POINT('',(140.,-8.,0.));
#243=CARTESIAN_POINT('',(35.,0.,0.));
#244=CARTESIAN_POINT('',(35.,0.,-8.));
#245=CARTESIAN_POINT('',(0.,0.,0.));
#246=CARTESIAN_POINT('',(2.,0.,0.));
#247=CARTESIAN_POINT('',(2.,0.,7.));
#248=CARTESIAN_POINT('',(32.3542486889354,0.,0.));
#249=CARTESIAN_POINT('',(32.3542486889354,0.,-7.));
#250=CARTESIAN_POINT('',(0.,0.,0.));
#251=CARTESIAN_POINT('',(32.3542486889354,0.,0.));
#252=CARTESIAN_POINT('',(1.,0.,0.));
#253=CARTESIAN_POINT('',(1.,0.,6.));
#254=CARTESIAN_POINT('',(1.,-7.,0.));
#255=CARTESIAN_POINT('',(2.,0.,0.));
#256=MECHANICAL_DESIGN_GEOMETRIC_PRESENTATION_REPRESENTATION('',(#35,#36),
#257);
#257=(
GEOMETRIC_REPRESENTATION_CONTEXT(3)
GLOBAL_UNCERTAINTY_ASSIGNED_CONTEXT((#258))
GLOBAL_UNIT_ASSIGNED_CONTEXT((#264,#260,#259))
REPRESENTATION_CONTEXT('16K2R035A16-SLC16-A-SIM',
'TOP_LEVEL_ASSEMBLY_PART')
);
#258=UNCERTAINTY_MEASURE_WITH_UNIT(LENGTH_MEASURE(2.E-5),#264,
'DISTANCE_ACCURACY_VALUE','Maximum Tolerance applied to model');
#259=(
NAMED_UNIT(*)
SI_UNIT($,.STERADIAN.)
SOLID_ANGLE_UNIT()
);
#260=(
CONVERSION_BASED_UNIT('DEGREE',#262)
NAMED_UNIT(#261)
PLANE_ANGLE_UNIT()
);
#261=DIMENSIONAL_EXPONENTS(0.,0.,0.,0.,0.,0.,0.);
#262=PLANE_ANGLE_MEASURE_WITH_UNIT(PLANE_ANGLE_MEASURE(0.0174532925),#263);
#263=(
NAMED_UNIT(*)
PLANE_ANGLE_UNIT()
SI_UNIT($,.RADIAN.)
);
#264=(
LENGTH_UNIT()
NAMED_UNIT(*)
SI_UNIT(.MILLI.,.METRE.)
);
ENDSEC;
END-ISO-10303-21;
