ISO-10303-21;
HEADER;
/* Generated by software containing ST-Developer
 * from STEP Tools, Inc. (www.steptools.com) 
 */
/* OPTION: using custom schema-name function */

FILE_DESCRIPTION(
/* description */ (''),
/* implementation_level */ '2;1');

FILE_NAME(
/* name */ '12L2R035A12-SZP12_115009066ndi000_00-SIM.stp',
/* time_stamp */ '2020-01-14T13:22:16+01:00',
/* author */ (''),
/* organization */ (''),
/* preprocessor_version */ 'ST-DEVELOPER v16.7',
/* originating_system */ 'SIEMENS PLM Software NX 12.0',
/* authorisation */ '');

FILE_SCHEMA (('AUTOMOTIVE_DESIGN { 1 0 10303 214 3 1 1 1 }'));
ENDSEC;

DATA;
#10=PROPERTY_DEFINITION_REPRESENTATION(#14,#12);
#11=PROPERTY_DEFINITION_REPRESENTATION(#15,#13);
#12=REPRESENTATION('',(#16),#470);
#13=REPRESENTATION('',(#17),#470);
#14=PROPERTY_DEFINITION('pmi validation property','',#21);
#15=PROPERTY_DEFINITION('pmi validation property','',#21);
#16=VALUE_REPRESENTATION_ITEM('number of annotations',COUNT_MEASURE(0.));
#17=VALUE_REPRESENTATION_ITEM('number of views',COUNT_MEASURE(0.));
#18=SHAPE_REPRESENTATION_RELATIONSHIP('None',
'relationship between hm152A00AAF63ixs-None and hm152A00AAF63ixs-None',
#30,#19);
#19=ADVANCED_BREP_SHAPE_REPRESENTATION('hm152A00AAF63ixs-None',(#74,#75),
#470);
#20=SHAPE_DEFINITION_REPRESENTATION(#21,#30);
#21=PRODUCT_DEFINITION_SHAPE('','',#22);
#22=PRODUCT_DEFINITION(' ','',#24,#23);
#23=PRODUCT_DEFINITION_CONTEXT('part definition',#29,'design');
#24=PRODUCT_DEFINITION_FORMATION_WITH_SPECIFIED_SOURCE(' ',' ',#26,
 .NOT_KNOWN.);
#25=PRODUCT_RELATED_PRODUCT_CATEGORY('part','',(#26));
#26=PRODUCT('hm152A00AAF63ixs','hm152A00AAF63ixs',' ',(#27));
#27=PRODUCT_CONTEXT(' ',#29,'mechanical');
#28=APPLICATION_PROTOCOL_DEFINITION('international standard',
'automotive_design',2010,#29);
#29=APPLICATION_CONTEXT(
'core data for automotive mechanical design processes');
#30=SHAPE_REPRESENTATION('hm152A00AAF63ixs-None',(#283),#470);
#31=(
BOUNDED_CURVE()
B_SPLINE_CURVE(3,(#443,#444,#445,#446,#447,#448,#449),.UNSPECIFIED.,.F.,
 .F.)
B_SPLINE_CURVE_WITH_KNOTS((4,3,4),(0.,0.969629127161938,1.),
 .UNSPECIFIED.)
CURVE()
GEOMETRIC_REPRESENTATION_ITEM()
RATIONAL_B_SPLINE_CURVE((0.996447498580266,0.804743852971227,0.805928020111138,
1.,0.993921247559995,0.988031732980471,0.982331456261427))
REPRESENTATION_ITEM('')
);
#32=SURFACE_OF_REVOLUTION('',#46,#39);
#33=SURFACE_OF_REVOLUTION('',#31,#40);
#34=SURFACE_OF_REVOLUTION('',#47,#41);
#35=SURFACE_OF_REVOLUTION('',#48,#42);
#36=SURFACE_OF_REVOLUTION('',#49,#43);
#37=SURFACE_OF_REVOLUTION('',#282,#44);
#38=SURFACE_OF_REVOLUTION('',#50,#45);
#39=AXIS1_PLACEMENT('',#440,#374);
#40=AXIS1_PLACEMENT('',#450,#377);
#41=AXIS1_PLACEMENT('',#454,#381);
#42=AXIS1_PLACEMENT('',#458,#385);
#43=AXIS1_PLACEMENT('',#462,#389);
#44=AXIS1_PLACEMENT('',#466,#394);
#45=AXIS1_PLACEMENT('',#468,#396);
#46=LINE('',#439,#51);
#47=LINE('',#453,#52);
#48=LINE('',#457,#53);
#49=LINE('',#461,#54);
#50=LINE('',#467,#55);
#51=VECTOR('',#373,1.08571846583886);
#52=VECTOR('',#380,5.01983218126985);
#53=VECTOR('',#384,0.522162915732907);
#54=VECTOR('',#388,0.207055236082048);
#55=VECTOR('',#395,5.4025666297136);
#56=PRESENTATION_LAYER_ASSIGNMENT('14','Layer 14',(#74));
#57=PRESENTATION_LAYER_ASSIGNMENT('96','Layer 96',(#75));
#58=STYLED_ITEM('',(#60),#74);
#59=STYLED_ITEM('',(#61),#75);
#60=PRESENTATION_STYLE_ASSIGNMENT((#62));
#61=PRESENTATION_STYLE_ASSIGNMENT((#63));
#62=SURFACE_STYLE_USAGE(.BOTH.,#64);
#63=SURFACE_STYLE_USAGE(.BOTH.,#65);
#64=SURFACE_SIDE_STYLE('',(#66));
#65=SURFACE_SIDE_STYLE('',(#67));
#66=SURFACE_STYLE_FILL_AREA(#68);
#67=SURFACE_STYLE_FILL_AREA(#69);
#68=FILL_AREA_STYLE('',(#70));
#69=FILL_AREA_STYLE('',(#71));
#70=FILL_AREA_STYLE_COLOUR('',#72);
#71=FILL_AREA_STYLE_COLOUR('',#73);
#72=COLOUR_RGB('Silver Gray',0.6,0.6,0.6);
#73=COLOUR_RGB('Light Gray',0.8,0.8,0.8);
#74=MANIFOLD_SOLID_BREP('',#76);
#75=MANIFOLD_SOLID_BREP('',#77);
#76=CLOSED_SHELL('',(#91,#92,#93,#94,#95,#96,#97,#98,#99,#100,#101,#102,
#103));
#77=CLOSED_SHELL('',(#104,#105,#106,#107,#108,#109,#110));
#78=TOROIDAL_SURFACE('',#307,7.4,2.);
#79=PLANE('',#301);
#80=PLANE('',#306);
#81=FACE_OUTER_BOUND('',#165,.T.);
#82=FACE_OUTER_BOUND('',#168,.T.);
#83=SPHERICAL_SURFACE('',#292,5.4);
#84=SPHERICAL_SURFACE('',#296,5.6);
#85=SPHERICAL_SURFACE('',#300,5.4);
#86=CONICAL_SURFACE('',#288,5.23876877615474,45.);
#87=CONICAL_SURFACE('',#290,5.23219171185627,4.);
#88=CONICAL_SURFACE('',#294,5.09363145900862,60.);
#89=CONICAL_SURFACE('',#298,4.34363145900861,60.);
#90=CONICAL_SURFACE('',#308,4.99999999999999,45.);
#91=ADVANCED_FACE('',(#113,#114),#111,.T.);
#92=ADVANCED_FACE('',(#115,#116),#86,.T.);
#93=ADVANCED_FACE('',(#117,#118),#87,.T.);
#94=ADVANCED_FACE('',(#119,#120),#83,.T.);
#95=ADVANCED_FACE('',(#121,#122),#88,.T.);
#96=ADVANCED_FACE('',(#123,#124),#84,.T.);
#97=ADVANCED_FACE('',(#125,#126),#89,.F.);
#98=ADVANCED_FACE('',(#127,#128),#85,.T.);
#99=ADVANCED_FACE('',(#81),#79,.F.);
#100=ADVANCED_FACE('',(#129,#130),#112,.T.);
#101=ADVANCED_FACE('',(#82),#80,.F.);
#102=ADVANCED_FACE('',(#131,#132),#78,.F.);
#103=ADVANCED_FACE('',(#133,#134),#90,.T.);
#104=ADVANCED_FACE('',(#135,#136),#32,.F.);
#105=ADVANCED_FACE('',(#137,#138),#33,.F.);
#106=ADVANCED_FACE('',(#139,#140),#34,.F.);
#107=ADVANCED_FACE('',(#141,#142),#35,.F.);
#108=ADVANCED_FACE('',(#143,#144),#36,.F.);
#109=ADVANCED_FACE('',(#145,#146),#37,.F.);
#110=ADVANCED_FACE('',(#147,#148),#38,.F.);
#111=CYLINDRICAL_SURFACE('',#286,5.4);
#112=CYLINDRICAL_SURFACE('',#304,5.99999999999999);
#113=FACE_BOUND('',#149,.T.);
#114=FACE_BOUND('',#150,.T.);
#115=FACE_BOUND('',#151,.T.);
#116=FACE_BOUND('',#152,.T.);
#117=FACE_BOUND('',#153,.T.);
#118=FACE_BOUND('',#154,.T.);
#119=FACE_BOUND('',#155,.T.);
#120=FACE_BOUND('',#156,.T.);
#121=FACE_BOUND('',#157,.T.);
#122=FACE_BOUND('',#158,.T.);
#123=FACE_BOUND('',#159,.T.);
#124=FACE_BOUND('',#160,.T.);
#125=FACE_BOUND('',#161,.T.);
#126=FACE_BOUND('',#162,.T.);
#127=FACE_BOUND('',#163,.T.);
#128=FACE_BOUND('',#164,.T.);
#129=FACE_BOUND('',#166,.T.);
#130=FACE_BOUND('',#167,.T.);
#131=FACE_BOUND('',#169,.T.);
#132=FACE_BOUND('',#170,.T.);
#133=FACE_BOUND('',#171,.T.);
#134=FACE_BOUND('',#172,.T.);
#135=FACE_BOUND('',#173,.T.);
#136=FACE_BOUND('',#174,.T.);
#137=FACE_BOUND('',#175,.T.);
#138=FACE_BOUND('',#176,.T.);
#139=FACE_BOUND('',#177,.T.);
#140=FACE_BOUND('',#178,.T.);
#141=FACE_BOUND('',#179,.T.);
#142=FACE_BOUND('',#180,.T.);
#143=FACE_BOUND('',#181,.T.);
#144=FACE_BOUND('',#182,.T.);
#145=FACE_BOUND('',#183,.T.);
#146=FACE_BOUND('',#184,.T.);
#147=FACE_BOUND('',#185,.T.);
#148=FACE_BOUND('',#186,.T.);
#149=EDGE_LOOP('',(#187));
#150=EDGE_LOOP('',(#188));
#151=EDGE_LOOP('',(#189));
#152=EDGE_LOOP('',(#190));
#153=EDGE_LOOP('',(#191));
#154=EDGE_LOOP('',(#192));
#155=EDGE_LOOP('',(#193));
#156=EDGE_LOOP('',(#194));
#157=EDGE_LOOP('',(#195));
#158=EDGE_LOOP('',(#196));
#159=EDGE_LOOP('',(#197));
#160=EDGE_LOOP('',(#198));
#161=EDGE_LOOP('',(#199));
#162=EDGE_LOOP('',(#200));
#163=EDGE_LOOP('',(#201));
#164=EDGE_LOOP('',(#202));
#165=EDGE_LOOP('',(#203));
#166=EDGE_LOOP('',(#204));
#167=EDGE_LOOP('',(#205));
#168=EDGE_LOOP('',(#206));
#169=EDGE_LOOP('',(#207));
#170=EDGE_LOOP('',(#208));
#171=EDGE_LOOP('',(#209));
#172=EDGE_LOOP('',(#210));
#173=EDGE_LOOP('',(#211));
#174=EDGE_LOOP('',(#212));
#175=EDGE_LOOP('',(#213));
#176=EDGE_LOOP('',(#214));
#177=EDGE_LOOP('',(#215));
#178=EDGE_LOOP('',(#216));
#179=EDGE_LOOP('',(#217));
#180=EDGE_LOOP('',(#218));
#181=EDGE_LOOP('',(#219));
#182=EDGE_LOOP('',(#220));
#183=EDGE_LOOP('',(#221));
#184=EDGE_LOOP('',(#222));
#185=EDGE_LOOP('',(#223));
#186=EDGE_LOOP('',(#224));
#187=ORIENTED_EDGE('',*,*,#244,.T.);
#188=ORIENTED_EDGE('',*,*,#245,.F.);
#189=ORIENTED_EDGE('',*,*,#244,.F.);
#190=ORIENTED_EDGE('',*,*,#246,.T.);
#191=ORIENTED_EDGE('',*,*,#246,.F.);
#192=ORIENTED_EDGE('',*,*,#247,.T.);
#193=ORIENTED_EDGE('',*,*,#247,.F.);
#194=ORIENTED_EDGE('',*,*,#248,.T.);
#195=ORIENTED_EDGE('',*,*,#249,.T.);
#196=ORIENTED_EDGE('',*,*,#248,.F.);
#197=ORIENTED_EDGE('',*,*,#249,.F.);
#198=ORIENTED_EDGE('',*,*,#250,.T.);
#199=ORIENTED_EDGE('',*,*,#250,.F.);
#200=ORIENTED_EDGE('',*,*,#251,.T.);
#201=ORIENTED_EDGE('',*,*,#251,.F.);
#202=ORIENTED_EDGE('',*,*,#252,.T.);
#203=ORIENTED_EDGE('',*,*,#252,.F.);
#204=ORIENTED_EDGE('',*,*,#253,.T.);
#205=ORIENTED_EDGE('',*,*,#254,.T.);
#206=ORIENTED_EDGE('',*,*,#255,.T.);
#207=ORIENTED_EDGE('',*,*,#254,.F.);
#208=ORIENTED_EDGE('',*,*,#245,.T.);
#209=ORIENTED_EDGE('',*,*,#253,.F.);
#210=ORIENTED_EDGE('',*,*,#255,.F.);
#211=ORIENTED_EDGE('',*,*,#256,.T.);
#212=ORIENTED_EDGE('',*,*,#257,.F.);
#213=ORIENTED_EDGE('',*,*,#258,.T.);
#214=ORIENTED_EDGE('',*,*,#256,.F.);
#215=ORIENTED_EDGE('',*,*,#259,.T.);
#216=ORIENTED_EDGE('',*,*,#258,.F.);
#217=ORIENTED_EDGE('',*,*,#260,.T.);
#218=ORIENTED_EDGE('',*,*,#259,.F.);
#219=ORIENTED_EDGE('',*,*,#261,.T.);
#220=ORIENTED_EDGE('',*,*,#260,.F.);
#221=ORIENTED_EDGE('',*,*,#262,.T.);
#222=ORIENTED_EDGE('',*,*,#261,.F.);
#223=ORIENTED_EDGE('',*,*,#257,.T.);
#224=ORIENTED_EDGE('',*,*,#262,.F.);
#225=VERTEX_POINT('',#399);
#226=VERTEX_POINT('',#401);
#227=VERTEX_POINT('',#404);
#228=VERTEX_POINT('',#407);
#229=VERTEX_POINT('',#410);
#230=VERTEX_POINT('',#413);
#231=VERTEX_POINT('',#416);
#232=VERTEX_POINT('',#419);
#233=VERTEX_POINT('',#422);
#234=VERTEX_POINT('',#426);
#235=VERTEX_POINT('',#428);
#236=VERTEX_POINT('',#431);
#237=VERTEX_POINT('',#436);
#238=VERTEX_POINT('',#438);
#239=VERTEX_POINT('',#442);
#240=VERTEX_POINT('',#452);
#241=VERTEX_POINT('',#456);
#242=VERTEX_POINT('',#460);
#243=VERTEX_POINT('',#464);
#244=EDGE_CURVE('',#225,#225,#263,.T.);
#245=EDGE_CURVE('',#226,#226,#264,.T.);
#246=EDGE_CURVE('',#227,#227,#265,.T.);
#247=EDGE_CURVE('',#228,#228,#266,.T.);
#248=EDGE_CURVE('',#229,#229,#267,.T.);
#249=EDGE_CURVE('',#230,#230,#268,.T.);
#250=EDGE_CURVE('',#231,#231,#269,.T.);
#251=EDGE_CURVE('',#232,#232,#270,.T.);
#252=EDGE_CURVE('',#233,#233,#271,.T.);
#253=EDGE_CURVE('',#234,#234,#272,.T.);
#254=EDGE_CURVE('',#235,#235,#273,.T.);
#255=EDGE_CURVE('',#236,#236,#274,.T.);
#256=EDGE_CURVE('',#237,#237,#275,.T.);
#257=EDGE_CURVE('',#238,#238,#276,.T.);
#258=EDGE_CURVE('',#239,#239,#277,.T.);
#259=EDGE_CURVE('',#240,#240,#278,.T.);
#260=EDGE_CURVE('',#241,#241,#279,.T.);
#261=EDGE_CURVE('',#242,#242,#280,.T.);
#262=EDGE_CURVE('',#243,#243,#281,.T.);
#263=CIRCLE('',#284,5.4);
#264=CIRCLE('',#285,5.4);
#265=CIRCLE('',#287,5.07753755230948);
#266=CIRCLE('',#289,5.38684587140305);
#267=CIRCLE('',#291,5.00621204437888);
#268=CIRCLE('',#293,5.18105087363836);
#269=CIRCLE('',#295,4.43105087363835);
#270=CIRCLE('',#297,4.25621204437888);
#271=CIRCLE('',#299,1.22163824432604);
#272=CIRCLE('',#302,5.99999999999999);
#273=CIRCLE('',#303,5.99999999999999);
#274=CIRCLE('',#305,4.99999999999999);
#275=CIRCLE('',#309,0.0507379537892195);
#276=CIRCLE('',#310,0.273941523765122);
#277=CIRCLE('',#311,5.95953467496124);
#278=CIRCLE('',#312,5.96353051330531);
#279=CIRCLE('',#313,5.59246518677055);
#280=CIRCLE('',#314,5.40686208445105);
#281=CIRCLE('',#315,1.18636190239453);
#282=CIRCLE('',#316,5.86945420795277);
#283=AXIS2_PLACEMENT_3D('',#397,#317,#318);
#284=AXIS2_PLACEMENT_3D('',#398,#319,#320);
#285=AXIS2_PLACEMENT_3D('',#400,#321,#322);
#286=AXIS2_PLACEMENT_3D('',#402,#323,#324);
#287=AXIS2_PLACEMENT_3D('',#403,#325,#326);
#288=AXIS2_PLACEMENT_3D('',#405,#327,#328);
#289=AXIS2_PLACEMENT_3D('',#406,#329,#330);
#290=AXIS2_PLACEMENT_3D('',#408,#331,#332);
#291=AXIS2_PLACEMENT_3D('',#409,#333,#334);
#292=AXIS2_PLACEMENT_3D('',#411,#335,#336);
#293=AXIS2_PLACEMENT_3D('',#412,#337,#338);
#294=AXIS2_PLACEMENT_3D('',#414,#339,#340);
#295=AXIS2_PLACEMENT_3D('',#415,#341,#342);
#296=AXIS2_PLACEMENT_3D('',#417,#343,#344);
#297=AXIS2_PLACEMENT_3D('',#418,#345,#346);
#298=AXIS2_PLACEMENT_3D('',#420,#347,#348);
#299=AXIS2_PLACEMENT_3D('',#421,#349,#350);
#300=AXIS2_PLACEMENT_3D('',#423,#351,#352);
#301=AXIS2_PLACEMENT_3D('',#424,#353,#354);
#302=AXIS2_PLACEMENT_3D('',#425,#355,#356);
#303=AXIS2_PLACEMENT_3D('',#427,#357,#358);
#304=AXIS2_PLACEMENT_3D('',#429,#359,#360);
#305=AXIS2_PLACEMENT_3D('',#430,#361,#362);
#306=AXIS2_PLACEMENT_3D('',#432,#363,#364);
#307=AXIS2_PLACEMENT_3D('',#433,#365,#366);
#308=AXIS2_PLACEMENT_3D('',#434,#367,#368);
#309=AXIS2_PLACEMENT_3D('',#435,#369,#370);
#310=AXIS2_PLACEMENT_3D('',#437,#371,#372);
#311=AXIS2_PLACEMENT_3D('',#441,#375,#376);
#312=AXIS2_PLACEMENT_3D('',#451,#378,#379);
#313=AXIS2_PLACEMENT_3D('',#455,#382,#383);
#314=AXIS2_PLACEMENT_3D('',#459,#386,#387);
#315=AXIS2_PLACEMENT_3D('',#463,#390,#391);
#316=AXIS2_PLACEMENT_3D('',#465,#392,#393);
#317=DIRECTION('',(0.,0.,1.));
#318=DIRECTION('',(1.,0.,0.));
#319=DIRECTION('',(1.47175503324012E-17,-1.80165331411333E-17,1.));
#320=DIRECTION('',(0.833945580477384,0.551846689581662,0.));
#321=DIRECTION('',(3.67220541100386E-16,-5.83528500939055E-16,1.));
#322=DIRECTION('',(-0.551846689581662,0.833945580477384,6.82645812305688E-16));
#323=DIRECTION('',(1.01391847781353E-17,-2.10461743239189E-17,1.));
#324=DIRECTION('',(0.833945580477384,0.551846689581662,0.));
#325=DIRECTION('',(1.47175503324012E-17,-1.80165331411333E-17,1.));
#326=DIRECTION('',(0.833945580477384,0.551846689581662,0.));
#327=DIRECTION('',(1.47175503324012E-17,-1.80165331411333E-17,1.));
#328=DIRECTION('',(0.833945580477384,0.551846689581662,-3.45136604329094E-17));
#329=DIRECTION('',(1.47175503324012E-17,-1.80165331411333E-17,1.));
#330=DIRECTION('',(0.833945580477384,0.551846689581662,0.));
#331=DIRECTION('',(-1.47175503324012E-17,1.80165331411333E-17,-1.));
#332=DIRECTION('',(-0.833945580477384,-0.551846689581662,1.84645712860292E-16));
#333=DIRECTION('',(1.47175503324012E-17,-1.80165331411333E-17,1.));
#334=DIRECTION('',(0.833945580477384,0.551846689581662,0.));
#335=DIRECTION('',(-0.551846689581662,0.833945580477384,0.));
#336=DIRECTION('',(-0.833945580477384,-0.551846689581662,0.));
#337=DIRECTION('',(1.47175503324012E-17,-1.80165331411333E-17,1.));
#338=DIRECTION('',(0.833945580477384,0.551846689581662,0.));
#339=DIRECTION('',(-1.47175503324012E-17,1.80165331411333E-17,-1.));
#340=DIRECTION('',(-0.833945580477384,-0.551846689581662,5.79191685770003E-17));
#341=DIRECTION('',(1.47175503324012E-17,-1.80165331411333E-17,1.));
#342=DIRECTION('',(0.833945580477384,0.551846689581662,0.));
#343=DIRECTION('',(-0.551846689581662,0.833945580477384,0.));
#344=DIRECTION('',(-0.833945580477384,-0.551846689581662,0.));
#345=DIRECTION('',(1.47175503324012E-17,-1.80165331411333E-17,1.));
#346=DIRECTION('',(0.833945580477384,0.551846689581662,0.));
#347=DIRECTION('',(-1.47175503324012E-17,1.80165331411333E-17,-1.));
#348=DIRECTION('',(-0.833945580477384,-0.551846689581662,-3.99615072931928E-18));
#349=DIRECTION('',(1.47175503324012E-17,-1.80165331411333E-17,1.));
#350=DIRECTION('',(0.833945580477384,0.551846689581662,0.));
#351=DIRECTION('',(-0.551846689581662,0.833945580477384,0.));
#352=DIRECTION('',(-0.833945580477384,-0.551846689581662,0.));
#353=DIRECTION('',(1.47175503324012E-17,-1.80165331411333E-17,1.));
#354=DIRECTION('',(0.833945580477384,0.551846689581662,0.));
#355=DIRECTION('',(-3.67220541100387E-16,5.83528500939056E-16,-1.));
#356=DIRECTION('',(0.551846689581662,-0.833945580477384,0.));
#357=DIRECTION('',(3.67220541100386E-16,-5.83528500939055E-16,1.));
#358=DIRECTION('',(-0.551846689581662,0.833945580477384,6.89280454393353E-16));
#359=DIRECTION('',(3.67220541100386E-16,-5.83528500939055E-16,1.));
#360=DIRECTION('',(-0.551846689581662,0.833945580477384,5.78241158658936E-16));
#361=DIRECTION('',(3.67220541100386E-16,-5.83528500939055E-16,1.));
#362=DIRECTION('',(0.551846689581662,-0.833945580477384,0.));
#363=DIRECTION('',(-3.67220541100386E-16,5.83528500939055E-16,-1.));
#364=DIRECTION('',(0.551846689581662,-0.833945580477384,-6.93889390390723E-16));
#365=DIRECTION('',(3.67220541100386E-16,-5.83528500939055E-16,1.));
#366=DIRECTION('',(-0.551846689581662,0.833945580477384,6.92043939884364E-16));
#367=DIRECTION('',(-3.67220541100387E-16,5.83528500939056E-16,-1.));
#368=DIRECTION('',(0.551846689581662,-0.833945580477384,-6.90437204368879E-16));
#369=DIRECTION('',(0.,0.,-1.));
#370=DIRECTION('',(-1.,0.,0.));
#371=DIRECTION('',(0.,0.,-1.));
#372=DIRECTION('',(-1.,0.,0.));
#373=DIRECTION('',(0.234214087859867,0.168818161359127,-0.957415369337308));
#374=DIRECTION('',(0.,0.,-1.));
#375=DIRECTION('',(0.,0.,-1.));
#376=DIRECTION('',(-1.,0.,0.));
#377=DIRECTION('',(0.,0.,-1.));
#378=DIRECTION('',(0.,0.,-1.));
#379=DIRECTION('',(-1.,0.,0.));
#380=DIRECTION('',(-0.0444092636992065,-0.173476860191762,0.983836163329902));
#381=DIRECTION('',(0.,0.,-1.));
#382=DIRECTION('',(0.,0.,-1.));
#383=DIRECTION('',(-1.,0.,0.));
#384=DIRECTION('',(-0.793834404970779,-0.105601357383499,0.598895058255995));
#385=DIRECTION('',(0.,0.,-1.));
#386=DIRECTION('',(0.,0.,-1.));
#387=DIRECTION('',(-1.,0.,0.));
#388=DIRECTION('',(-0.976466828324963,-0.0374502935686351,0.212391169055143));
#389=DIRECTION('',(0.,0.,-1.));
#390=DIRECTION('',(0.,0.,-1.));
#391=DIRECTION('',(-1.,0.,0.));
#392=DIRECTION('',(2.4980018054066E-16,-0.984807753012208,-0.17364817766693));
#393=DIRECTION('',(-0.993661048398056,-0.0195211145494517,0.110709742042979));
#394=DIRECTION('',(0.,0.,-1.));
#395=DIRECTION('',(-0.112417618265448,0.172547430272934,-0.978565104328645));
#396=DIRECTION('',(0.,0.,-1.));
#397=CARTESIAN_POINT('',(0.,0.,0.));
#398=CARTESIAN_POINT('',(-3.55440997198882E-14,5.29718801790466E-14,-23.9175375523095));
#399=CARTESIAN_POINT('',(4.50330613457784,2.97997212374103,-23.9175375523095));
#400=CARTESIAN_POINT('',(-4.14804967208775E-14,6.16925081646556E-14,-1.42828568570855));
#401=CARTESIAN_POINT('',(-2.97997212374102,4.50330613457794,-1.42828568570854));
#402=CARTESIAN_POINT('',(-3.54784775660046E-14,5.28915486236224E-14,-19.4587687761548));
#403=CARTESIAN_POINT('',(-3.55488455771924E-14,5.29776898344222E-14,-24.24));
#404=CARTESIAN_POINT('',(4.23439000145641,2.80202228946861,-24.24));
#405=CARTESIAN_POINT('',(-3.55464726485403E-14,5.29747850067344E-14,-24.0787687761547));
#406=CARTESIAN_POINT('',(-3.56139459389559E-14,5.30573826364661E-14,-28.6633150417817));
#407=CARTESIAN_POINT('',(4.49233630716938,2.97271306142047,-28.6633150417817));
#408=CARTESIAN_POINT('',(-3.55813957580741E-14,5.30175362354442E-14,-26.4516575208909));
#409=CARTESIAN_POINT('',(-3.56492827394192E-14,5.31006402861612E-14,-31.0643124676581));
#410=CARTESIAN_POINT('',(4.17490840934238,2.76266154403438,-31.0643124676581));
#411=CARTESIAN_POINT('',(-3.56194898187879E-14,5.30641691934997E-14,-29.04));
#412=CARTESIAN_POINT('',(-3.56507683767102E-14,5.31024589334826E-14,-31.1652557127958));
#413=CARTESIAN_POINT('',(4.32071447829916,2.85914577317156,-31.1652557127958));
#414=CARTESIAN_POINT('',(-3.56500255580647E-14,5.31015496098219E-14,-31.1147840902269));
#415=CARTESIAN_POINT('',(-3.56698870354142E-14,5.31258630965651E-14,-32.4642938184725));
#416=CARTESIAN_POINT('',(3.69525529294112,2.44526075598531,-32.4642938184725));
#417=CARTESIAN_POINT('',(-3.56194898187879E-14,5.30641691934997E-14,-29.04));
#418=CARTESIAN_POINT('',(-3.56684013981232E-14,5.31240444492437E-14,-32.3633505733347));
#419=CARTESIAN_POINT('',(3.54944922398434,2.34877652684814,-32.3633505733347));
#420=CARTESIAN_POINT('',(-3.56691442167687E-14,5.31249537729044E-14,-32.4138221959036));
#421=CARTESIAN_POINT('',(-3.56969041335363E-14,5.3158936157822E-14,-34.3));
#422=CARTESIAN_POINT('',(1.01877981479781,0.67415702099773,-34.3));
#423=CARTESIAN_POINT('',(-3.56194898187879E-14,5.30641691934997E-14,-29.04));
#424=CARTESIAN_POINT('',(-0.50938990739896,-0.337078510498785,-34.3));
#425=CARTESIAN_POINT('',(-2.7650646040855E-15,1.72098661899604E-16,104.));
#426=CARTESIAN_POINT('',(3.31108013748997,-5.0036734828643,104.));
#427=CARTESIAN_POINT('',(-4.09560008785257E-14,6.08590627595614E-14,0.));
#428=CARTESIAN_POINT('',(-3.31108013749001,5.00367348286435,4.13568272636011E-15));
#429=CARTESIAN_POINT('',(-4.64643089950315E-14,6.96119902736472E-14,-15.));
#430=CARTESIAN_POINT('',(-2.39784406298512E-15,-4.11429839039457E-16,105.));
#431=CARTESIAN_POINT('',(2.7592334479083,-4.16972790238691,105.));
#432=CARTESIAN_POINT('',(5.0036734828643,3.31108013748997,105.));
#433=CARTESIAN_POINT('',(-4.16355613521552E-14,6.15898972683992E-14,-1.42828568570855));
#434=CARTESIAN_POINT('',(-2.39784406298512E-15,-4.11429839039457E-16,105.));
#435=CARTESIAN_POINT('',(0.,0.,-34.9997612803732));
#436=CARTESIAN_POINT('',(-0.0507379537892195,0.,-34.9997612803732));
#437=CARTESIAN_POINT('',(0.,0.,-33.9602777344058));
#438=CARTESIAN_POINT('',(-0.273941523765122,0.,-33.9602777344058));
#439=CARTESIAN_POINT('',(-0.203552623820114,-0.183331087867564,-33.9602777344058));
#440=CARTESIAN_POINT('',(0.,0.,0.));
#441=CARTESIAN_POINT('',(0.,0.,-28.9629948162268));
#442=CARTESIAN_POINT('',(-5.95953467496124,0.,-28.9629948162268));
#443=CARTESIAN_POINT('',(0.050737936328951,-4.20927109914697E-5,-34.9997612803733));
#444=CARTESIAN_POINT('',(3.46786170893027,-0.00516847799752827,-34.9706881046974));
#445=CARTESIAN_POINT('',(5.86948585664921,-0.426696520200791,-32.580083782491));
#446=CARTESIAN_POINT('',(5.86948585664921,-1.0192240856246,-29.2196929730806));
#447=CARTESIAN_POINT('',(5.86948585664921,-1.03427297536565,-29.1343464782867));
#448=CARTESIAN_POINT('',(5.86756676790916,-1.04936323797902,-29.0487653462743));
#449=CARTESIAN_POINT('',(5.86369518214267,-1.06448689657606,-28.9629948162267));
#450=CARTESIAN_POINT('',(0.,0.,0.));
#451=CARTESIAN_POINT('',(0.,0.,-24.0243023824462));
#452=CARTESIAN_POINT('',(-5.96353051330531,0.,-24.0243023824462));
#453=CARTESIAN_POINT('',(5.86369518214267,-1.06448689657606,-28.9629948162267));
#454=CARTESIAN_POINT('',(0.,0.,0.));
#455=CARTESIAN_POINT('',(0.,0.,-23.7115815926092));
#456=CARTESIAN_POINT('',(-5.59246518677055,0.,-23.7115815926092));
#457=CARTESIAN_POINT('',(5.6407681310789,-1.93531162207232,-24.0243023824462));
#458=CARTESIAN_POINT('',(0.,0.,0.));
#459=CARTESIAN_POINT('',(0.,0.,-23.6676048889588));
#460=CARTESIAN_POINT('',(-5.40686208445105,0.,-23.6676048889588));
#461=CARTESIAN_POINT('',(5.22625724357026,-1.99045273474904,-23.7115815926092));
#462=CARTESIAN_POINT('',(0.,0.,0.));
#463=CARTESIAN_POINT('',(0.,0.,-28.6735145567577));
#464=CARTESIAN_POINT('',(-1.18636190239453,0.,-28.6735145567577));
#465=CARTESIAN_POINT('',(6.23603907101141,-1.00095178876674,-29.3233203180532));
#466=CARTESIAN_POINT('',(0.,0.,0.));
#467=CARTESIAN_POINT('',(0.403791049212675,-1.11553007670295,-28.6735145567577));
#468=CARTESIAN_POINT('',(0.,0.,0.));
#469=MECHANICAL_DESIGN_GEOMETRIC_PRESENTATION_REPRESENTATION('',(#58,#59),
#470);
#470=(
GEOMETRIC_REPRESENTATION_CONTEXT(3)
GLOBAL_UNCERTAINTY_ASSIGNED_CONTEXT((#471))
GLOBAL_UNIT_ASSIGNED_CONTEXT((#477,#473,#472))
REPRESENTATION_CONTEXT('12L2R035A12-SZP12_115009066ndi000_00-SIM',
'TOP_LEVEL_ASSEMBLY_PART')
);
#471=UNCERTAINTY_MEASURE_WITH_UNIT(LENGTH_MEASURE(0.0508),#477,
'DISTANCE_ACCURACY_VALUE','Maximum Tolerance applied to model');
#472=(
NAMED_UNIT(*)
SI_UNIT($,.STERADIAN.)
SOLID_ANGLE_UNIT()
);
#473=(
CONVERSION_BASED_UNIT('DEGREE',#475)
NAMED_UNIT(#474)
PLANE_ANGLE_UNIT()
);
#474=DIMENSIONAL_EXPONENTS(0.,0.,0.,0.,0.,0.,0.);
#475=PLANE_ANGLE_MEASURE_WITH_UNIT(PLANE_ANGLE_MEASURE(0.0174532925),#476);
#476=(
NAMED_UNIT(*)
PLANE_ANGLE_UNIT()
SI_UNIT($,.RADIAN.)
);
#477=(
LENGTH_UNIT()
NAMED_UNIT(*)
SI_UNIT(.MILLI.,.METRE.)
);
ENDSEC;
END-ISO-10303-21;
