ISO-10303-21;
HEADER;
/* Generated by software containing ST-Developer
 * from STEP Tools, Inc. (www.steptools.com) 
 */
/* OPTION: using custom schema-name function */

FILE_DESCRIPTION(
/* description */ (''),
/* implementation_level */ '2;1');

FILE_NAME(
/* name */ '12K2R030A12-SLC12-A-SIM.stp',
/* time_stamp */ '2020-02-05T09:19:18+01:00',
/* author */ (''),
/* organization */ (''),
/* preprocessor_version */ 'ST-DEVELOPER v16.7',
/* originating_system */ 'SIEMENS PLM Software NX 12.0',
/* authorisation */ '');

FILE_SCHEMA (('AUTOMOTIVE_DESIGN { 1 0 10303 214 3 1 1 1 }'));
ENDSEC;

DATA;
#10=PROPERTY_DEFINITION_REPRESENTATION(#14,#12);
#11=PROPERTY_DEFINITION_REPRESENTATION(#15,#13);
#12=REPRESENTATION('',(#16),#413);
#13=REPRESENTATION('',(#17),#413);
#14=PROPERTY_DEFINITION('pmi validation property','',#21);
#15=PROPERTY_DEFINITION('pmi validation property','',#21);
#16=VALUE_REPRESENTATION_ITEM('number of annotations',COUNT_MEASURE(0.));
#17=VALUE_REPRESENTATION_ITEM('number of views',COUNT_MEASURE(0.));
#18=SHAPE_REPRESENTATION_RELATIONSHIP('None',
'relationship between hm1532102F367oon-None and hm1532102F367oon-None',
#30,#19);
#19=ADVANCED_BREP_SHAPE_REPRESENTATION('hm1532102F367oon-None',(#57,#58),
#413);
#20=SHAPE_DEFINITION_REPRESENTATION(#21,#30);
#21=PRODUCT_DEFINITION_SHAPE('','',#22);
#22=PRODUCT_DEFINITION(' ','',#24,#23);
#23=PRODUCT_DEFINITION_CONTEXT('part definition',#29,'design');
#24=PRODUCT_DEFINITION_FORMATION_WITH_SPECIFIED_SOURCE(' ',' ',#26,
 .NOT_KNOWN.);
#25=PRODUCT_RELATED_PRODUCT_CATEGORY('part','',(#26));
#26=PRODUCT('hm1532102F367oon','hm1532102F367oon',' ',(#27));
#27=PRODUCT_CONTEXT(' ',#29,'mechanical');
#28=APPLICATION_PROTOCOL_DEFINITION('international standard',
'automotive_design',2010,#29);
#29=APPLICATION_CONTEXT(
'core data for automotive mechanical design processes');
#30=SHAPE_REPRESENTATION('hm1532102F367oon-None',(#249),#413);
#31=CONICAL_SURFACE('',#272,3.,15.);
#32=CONICAL_SURFACE('',#274,3.,15.);
#33=CONICAL_SURFACE('',#275,5.,45.);
#34=TOROIDAL_SURFACE('',#269,9.25,4.);
#35=B_SPLINE_CURVE_WITH_KNOTS('',3,(#374,#375,#376,#377,#378,#379),
 .UNSPECIFIED.,.F.,.F.,(4,2,4),(0.,0.5,1.),.UNSPECIFIED.);
#36=B_SPLINE_CURVE_WITH_KNOTS('',3,(#382,#383,#384,#385,#386,#387),
 .UNSPECIFIED.,.F.,.F.,(4,2,4),(0.,0.5,1.),.UNSPECIFIED.);
#37=ELLIPSE('',#260,6.27602830517637,5.25);
#38=ELLIPSE('',#261,6.27602830517637,5.25);
#39=PRESENTATION_LAYER_ASSIGNMENT('96','Layer 96',(#57));
#40=PRESENTATION_LAYER_ASSIGNMENT('14','Layer 14',(#58));
#41=STYLED_ITEM('',(#43),#57);
#42=STYLED_ITEM('',(#44),#58);
#43=PRESENTATION_STYLE_ASSIGNMENT((#45));
#44=PRESENTATION_STYLE_ASSIGNMENT((#46));
#45=SURFACE_STYLE_USAGE(.BOTH.,#47);
#46=SURFACE_STYLE_USAGE(.BOTH.,#48);
#47=SURFACE_SIDE_STYLE('',(#49));
#48=SURFACE_SIDE_STYLE('',(#50));
#49=SURFACE_STYLE_FILL_AREA(#51);
#50=SURFACE_STYLE_FILL_AREA(#52);
#51=FILL_AREA_STYLE('',(#53));
#52=FILL_AREA_STYLE('',(#54));
#53=FILL_AREA_STYLE_COLOUR('',#55);
#54=FILL_AREA_STYLE_COLOUR('',#56);
#55=COLOUR_RGB('Light Gray',0.8,0.8,0.8);
#56=COLOUR_RGB('Medium Gray',0.499992370489052,0.499992370489052,0.499992370489052);
#57=MANIFOLD_SOLID_BREP('',#59);
#58=MANIFOLD_SOLID_BREP('',#60);
#59=CLOSED_SHELL('',(#100,#101,#102,#103,#104));
#60=CLOSED_SHELL('',(#105,#106,#107,#108,#109,#110,#111,#112,#113,#114,
#115));
#61=CYLINDRICAL_SURFACE('',#257,6.09877762919061);
#62=CYLINDRICAL_SURFACE('',#263,5.25);
#63=CYLINDRICAL_SURFACE('',#268,6.);
#64=SURFACE_OF_REVOLUTION('',#68,#66);
#65=SURFACE_OF_REVOLUTION('',#242,#67);
#66=AXIS1_PLACEMENT('',#354,#290);
#67=AXIS1_PLACEMENT('',#358,#295);
#68=LINE('',#353,#77);
#69=LINE('',#360,#78);
#70=LINE('',#363,#79);
#71=LINE('',#367,#80);
#72=LINE('',#372,#81);
#73=LINE('',#400,#82);
#74=LINE('',#402,#83);
#75=LINE('',#406,#84);
#76=LINE('',#407,#85);
#77=VECTOR('',#289,2.08065377524352);
#78=VECTOR('',#298,1.);
#79=VECTOR('',#299,1.);
#80=VECTOR('',#302,1.);
#81=VECTOR('',#307,1.);
#82=VECTOR('',#326,1.);
#83=VECTOR('',#327,1.);
#84=VECTOR('',#334,1.);
#85=VECTOR('',#335,1.);
#86=FACE_BOUND('',#134,.T.);
#87=FACE_BOUND('',#135,.T.);
#88=FACE_BOUND('',#136,.T.);
#89=FACE_BOUND('',#137,.T.);
#90=FACE_BOUND('',#138,.T.);
#91=FACE_BOUND('',#139,.T.);
#92=FACE_BOUND('',#141,.T.);
#93=FACE_BOUND('',#142,.T.);
#94=FACE_BOUND('',#144,.T.);
#95=FACE_BOUND('',#145,.T.);
#96=FACE_BOUND('',#146,.T.);
#97=FACE_BOUND('',#147,.T.);
#98=FACE_BOUND('',#152,.T.);
#99=FACE_BOUND('',#153,.T.);
#100=ADVANCED_FACE('',(#123),#116,.T.);
#101=ADVANCED_FACE('',(#124),#117,.F.);
#102=ADVANCED_FACE('',(#86,#87),#64,.F.);
#103=ADVANCED_FACE('',(#88,#89),#65,.F.);
#104=ADVANCED_FACE('',(#90,#91),#61,.T.);
#105=ADVANCED_FACE('',(#125),#118,.F.);
#106=ADVANCED_FACE('',(#92,#93),#62,.T.);
#107=ADVANCED_FACE('',(#126),#119,.F.);
#108=ADVANCED_FACE('',(#94,#95),#63,.T.);
#109=ADVANCED_FACE('',(#96,#97),#34,.F.);
#110=ADVANCED_FACE('',(#127),#120,.T.);
#111=ADVANCED_FACE('',(#128),#31,.T.);
#112=ADVANCED_FACE('',(#129),#121,.T.);
#113=ADVANCED_FACE('',(#130),#32,.T.);
#114=ADVANCED_FACE('',(#98,#99),#33,.T.);
#115=ADVANCED_FACE('',(#131),#122,.F.);
#116=PLANE('',#251);
#117=PLANE('',#253);
#118=PLANE('',#259);
#119=PLANE('',#265);
#120=PLANE('',#270);
#121=PLANE('',#273);
#122=PLANE('',#276);
#123=FACE_OUTER_BOUND('',#132,.T.);
#124=FACE_OUTER_BOUND('',#133,.T.);
#125=FACE_OUTER_BOUND('',#140,.T.);
#126=FACE_OUTER_BOUND('',#143,.T.);
#127=FACE_OUTER_BOUND('',#148,.T.);
#128=FACE_OUTER_BOUND('',#149,.T.);
#129=FACE_OUTER_BOUND('',#150,.T.);
#130=FACE_OUTER_BOUND('',#151,.T.);
#131=FACE_OUTER_BOUND('',#154,.T.);
#132=EDGE_LOOP('',(#155));
#133=EDGE_LOOP('',(#156));
#134=EDGE_LOOP('',(#157));
#135=EDGE_LOOP('',(#158));
#136=EDGE_LOOP('',(#159));
#137=EDGE_LOOP('',(#160));
#138=EDGE_LOOP('',(#161));
#139=EDGE_LOOP('',(#162));
#140=EDGE_LOOP('',(#163,#164,#165,#166));
#141=EDGE_LOOP('',(#167,#168,#169,#170,#171,#172));
#142=EDGE_LOOP('',(#173));
#143=EDGE_LOOP('',(#174));
#144=EDGE_LOOP('',(#175));
#145=EDGE_LOOP('',(#176));
#146=EDGE_LOOP('',(#177));
#147=EDGE_LOOP('',(#178));
#148=EDGE_LOOP('',(#179,#180,#181,#182));
#149=EDGE_LOOP('',(#183,#184,#185));
#150=EDGE_LOOP('',(#186,#187,#188,#189));
#151=EDGE_LOOP('',(#190,#191,#192));
#152=EDGE_LOOP('',(#193));
#153=EDGE_LOOP('',(#194));
#154=EDGE_LOOP('',(#195,#196,#197,#198));
#155=ORIENTED_EDGE('',*,*,#216,.T.);
#156=ORIENTED_EDGE('',*,*,#217,.F.);
#157=ORIENTED_EDGE('',*,*,#217,.T.);
#158=ORIENTED_EDGE('',*,*,#218,.F.);
#159=ORIENTED_EDGE('',*,*,#218,.T.);
#160=ORIENTED_EDGE('',*,*,#219,.F.);
#161=ORIENTED_EDGE('',*,*,#219,.T.);
#162=ORIENTED_EDGE('',*,*,#216,.F.);
#163=ORIENTED_EDGE('',*,*,#220,.T.);
#164=ORIENTED_EDGE('',*,*,#221,.T.);
#165=ORIENTED_EDGE('',*,*,#222,.F.);
#166=ORIENTED_EDGE('',*,*,#223,.F.);
#167=ORIENTED_EDGE('',*,*,#224,.F.);
#168=ORIENTED_EDGE('',*,*,#225,.T.);
#169=ORIENTED_EDGE('',*,*,#226,.T.);
#170=ORIENTED_EDGE('',*,*,#227,.F.);
#171=ORIENTED_EDGE('',*,*,#223,.T.);
#172=ORIENTED_EDGE('',*,*,#228,.T.);
#173=ORIENTED_EDGE('',*,*,#229,.F.);
#174=ORIENTED_EDGE('',*,*,#230,.T.);
#175=ORIENTED_EDGE('',*,*,#231,.T.);
#176=ORIENTED_EDGE('',*,*,#232,.T.);
#177=ORIENTED_EDGE('',*,*,#229,.T.);
#178=ORIENTED_EDGE('',*,*,#232,.F.);
#179=ORIENTED_EDGE('',*,*,#227,.T.);
#180=ORIENTED_EDGE('',*,*,#233,.T.);
#181=ORIENTED_EDGE('',*,*,#234,.F.);
#182=ORIENTED_EDGE('',*,*,#220,.F.);
#183=ORIENTED_EDGE('',*,*,#226,.F.);
#184=ORIENTED_EDGE('',*,*,#235,.F.);
#185=ORIENTED_EDGE('',*,*,#233,.F.);
#186=ORIENTED_EDGE('',*,*,#224,.T.);
#187=ORIENTED_EDGE('',*,*,#236,.T.);
#188=ORIENTED_EDGE('',*,*,#221,.F.);
#189=ORIENTED_EDGE('',*,*,#237,.F.);
#190=ORIENTED_EDGE('',*,*,#236,.F.);
#191=ORIENTED_EDGE('',*,*,#228,.F.);
#192=ORIENTED_EDGE('',*,*,#222,.T.);
#193=ORIENTED_EDGE('',*,*,#231,.F.);
#194=ORIENTED_EDGE('',*,*,#230,.F.);
#195=ORIENTED_EDGE('',*,*,#237,.T.);
#196=ORIENTED_EDGE('',*,*,#234,.T.);
#197=ORIENTED_EDGE('',*,*,#235,.T.);
#198=ORIENTED_EDGE('',*,*,#225,.F.);
#199=VERTEX_POINT('',#346);
#200=VERTEX_POINT('',#349);
#201=VERTEX_POINT('',#352);
#202=VERTEX_POINT('',#356);
#203=VERTEX_POINT('',#361);
#204=VERTEX_POINT('',#362);
#205=VERTEX_POINT('',#364);
#206=VERTEX_POINT('',#366);
#207=VERTEX_POINT('',#370);
#208=VERTEX_POINT('',#371);
#209=VERTEX_POINT('',#373);
#210=VERTEX_POINT('',#380);
#211=VERTEX_POINT('',#389);
#212=VERTEX_POINT('',#392);
#213=VERTEX_POINT('',#395);
#214=VERTEX_POINT('',#397);
#215=VERTEX_POINT('',#401);
#216=EDGE_CURVE('',#199,#199,#238,.T.);
#217=EDGE_CURVE('',#200,#200,#239,.T.);
#218=EDGE_CURVE('',#201,#201,#240,.T.);
#219=EDGE_CURVE('',#202,#202,#241,.T.);
#220=EDGE_CURVE('',#203,#204,#69,.T.);
#221=EDGE_CURVE('',#204,#205,#70,.T.);
#222=EDGE_CURVE('',#206,#205,#243,.T.);
#223=EDGE_CURVE('',#203,#206,#71,.T.);
#224=EDGE_CURVE('',#207,#208,#37,.T.);
#225=EDGE_CURVE('',#207,#209,#72,.T.);
#226=EDGE_CURVE('',#209,#210,#35,.T.);
#227=EDGE_CURVE('',#203,#210,#38,.T.);
#228=EDGE_CURVE('',#206,#208,#36,.T.);
#229=EDGE_CURVE('',#211,#211,#244,.T.);
#230=EDGE_CURVE('',#212,#212,#245,.T.);
#231=EDGE_CURVE('',#213,#213,#246,.T.);
#232=EDGE_CURVE('',#214,#214,#247,.T.);
#233=EDGE_CURVE('',#210,#215,#73,.T.);
#234=EDGE_CURVE('',#204,#215,#74,.T.);
#235=EDGE_CURVE('',#215,#209,#248,.T.);
#236=EDGE_CURVE('',#208,#205,#75,.T.);
#237=EDGE_CURVE('',#207,#204,#76,.T.);
#238=CIRCLE('',#250,6.09877762919061);
#239=CIRCLE('',#252,3.10546568705588);
#240=CIRCLE('',#254,5.07196539412014);
#241=CIRCLE('',#255,6.09877762919061);
#242=CIRCLE('',#256,0.969303859774274);
#243=CIRCLE('',#258,3.22775681356645);
#244=CIRCLE('',#262,5.25);
#245=CIRCLE('',#264,5.);
#246=CIRCLE('',#266,6.);
#247=CIRCLE('',#267,6.);
#248=CIRCLE('',#271,3.44211616751135);
#249=AXIS2_PLACEMENT_3D('',#344,#277,#278);
#250=AXIS2_PLACEMENT_3D('',#345,#279,#280);
#251=AXIS2_PLACEMENT_3D('',#347,#281,#282);
#252=AXIS2_PLACEMENT_3D('',#348,#283,#284);
#253=AXIS2_PLACEMENT_3D('',#350,#285,#286);
#254=AXIS2_PLACEMENT_3D('',#351,#287,#288);
#255=AXIS2_PLACEMENT_3D('',#355,#291,#292);
#256=AXIS2_PLACEMENT_3D('',#357,#293,#294);
#257=AXIS2_PLACEMENT_3D('',#359,#296,#297);
#258=AXIS2_PLACEMENT_3D('',#365,#300,#301);
#259=AXIS2_PLACEMENT_3D('',#368,#303,#304);
#260=AXIS2_PLACEMENT_3D('',#369,#305,#306);
#261=AXIS2_PLACEMENT_3D('',#381,#308,#309);
#262=AXIS2_PLACEMENT_3D('',#388,#310,#311);
#263=AXIS2_PLACEMENT_3D('',#390,#312,#313);
#264=AXIS2_PLACEMENT_3D('',#391,#314,#315);
#265=AXIS2_PLACEMENT_3D('',#393,#316,#317);
#266=AXIS2_PLACEMENT_3D('',#394,#318,#319);
#267=AXIS2_PLACEMENT_3D('',#396,#320,#321);
#268=AXIS2_PLACEMENT_3D('',#398,#322,#323);
#269=AXIS2_PLACEMENT_3D('',#399,#324,#325);
#270=AXIS2_PLACEMENT_3D('',#403,#328,#329);
#271=AXIS2_PLACEMENT_3D('',#404,#330,#331);
#272=AXIS2_PLACEMENT_3D('',#405,#332,#333);
#273=AXIS2_PLACEMENT_3D('',#408,#336,#337);
#274=AXIS2_PLACEMENT_3D('',#409,#338,#339);
#275=AXIS2_PLACEMENT_3D('',#410,#340,#341);
#276=AXIS2_PLACEMENT_3D('',#411,#342,#343);
#277=DIRECTION('',(0.,0.,1.));
#278=DIRECTION('',(1.,0.,0.));
#279=DIRECTION('',(1.,0.,0.));
#280=DIRECTION('',(0.,0.,-1.));
#281=DIRECTION('',(1.,0.,0.));
#282=DIRECTION('',(0.,0.,-1.));
#283=DIRECTION('',(1.,0.,0.));
#284=DIRECTION('',(0.,0.,-1.));
#285=DIRECTION('',(1.,0.,0.));
#286=DIRECTION('',(0.,0.,-1.));
#287=DIRECTION('',(1.,0.,0.));
#288=DIRECTION('',(0.,0.,-1.));
#289=DIRECTION('',(0.087155742747658,0.996194698091746,0.));
#290=DIRECTION('',(1.,0.,0.));
#291=DIRECTION('',(1.,0.,0.));
#292=DIRECTION('',(0.,0.,-1.));
#293=DIRECTION('',(0.,0.,-1.));
#294=DIRECTION('',(1.,1.22464679914735E-16,0.));
#295=DIRECTION('',(1.,0.,0.));
#296=DIRECTION('',(1.,0.,0.));
#297=DIRECTION('',(0.,0.,-1.));
#298=DIRECTION('',(-0.5,0.866025403784439,7.83034902350642E-17));
#299=DIRECTION('',(-0.5,-0.866025403784439,0.));
#300=DIRECTION('',(0.,0.,-1.));
#301=DIRECTION('',(-1.,0.,0.));
#302=DIRECTION('',(-1.,0.,0.));
#303=DIRECTION('',(0.,0.,-1.));
#304=DIRECTION('',(-1.,0.,0.));
#305=DIRECTION('',(-0.836516303737808,0.482962913144534,-0.25881904510252));
#306=DIRECTION('',(0.547942034873065,0.737315856849166,-0.39512637681879));
#307=DIRECTION('',(-1.,0.,0.));
#308=DIRECTION('',(-0.836516303737808,-0.482962913144534,0.25881904510252));
#309=DIRECTION('',(0.547942034873065,-0.737315856849166,0.39512637681879));
#310=DIRECTION('',(1.,0.,0.));
#311=DIRECTION('',(0.,0.,-1.));
#312=DIRECTION('',(1.,0.,0.));
#313=DIRECTION('',(0.,0.,-1.));
#314=DIRECTION('',(1.,0.,0.));
#315=DIRECTION('',(0.,0.,1.));
#316=DIRECTION('',(-1.,0.,0.));
#317=DIRECTION('',(0.,0.,1.));
#318=DIRECTION('',(-1.,0.,0.));
#319=DIRECTION('',(0.,0.,1.));
#320=DIRECTION('',(1.,0.,0.));
#321=DIRECTION('',(0.,0.,-1.));
#322=DIRECTION('',(1.,0.,0.));
#323=DIRECTION('',(0.,0.,-1.));
#324=DIRECTION('',(1.,0.,0.));
#325=DIRECTION('',(0.,0.,-1.));
#326=DIRECTION('',(-0.224143868042013,-0.12940952255126,-0.965925826289069));
#327=DIRECTION('',(-0.5,0.866025403784439,7.83034902350642E-17));
#328=DIRECTION('',(-0.836516303737808,-0.482962913144534,0.258819045102521));
#329=DIRECTION('',(0.5,-0.866025403784439,0.));
#330=DIRECTION('',(-1.56606980470128E-16,0.,-1.));
#331=DIRECTION('',(1.,0.,-1.57490642343629E-16));
#332=DIRECTION('',(0.,0.,-1.));
#333=DIRECTION('',(-1.,0.,-9.84368072989311E-17));
#334=DIRECTION('',(-0.224143868042013,0.12940952255126,0.965925826289069));
#335=DIRECTION('',(-0.5,-0.866025403784439,0.));
#336=DIRECTION('',(-0.836516303737808,0.482962913144534,-0.258819045102521));
#337=DIRECTION('',(0.5,0.866025403784439,-1.06034972469082E-16));
#338=DIRECTION('',(0.,1.22460635382238E-16,1.));
#339=DIRECTION('',(-1.,0.,9.84368072989311E-17));
#340=DIRECTION('',(-1.,0.,0.));
#341=DIRECTION('',(0.,0.,1.));
#342=DIRECTION('',(1.56606980470128E-16,0.,1.));
#343=DIRECTION('',(1.,0.,-1.56613003815531E-16));
#344=CARTESIAN_POINT('',(0.,0.,0.));
#345=CARTESIAN_POINT('',(13.6,0.,0.));
#346=CARTESIAN_POINT('',(13.6,0.,-6.09877762919061));
#347=CARTESIAN_POINT('',(13.6,0.,0.));
#348=CARTESIAN_POINT('',(0.215725559235072,0.,0.));
#349=CARTESIAN_POINT('',(0.215725559235072,0.,-3.10546568705588));
#350=CARTESIAN_POINT('',(0.215725559235072,0.,0.));
#351=CARTESIAN_POINT('',(0.0343846340530035,0.,0.));
#352=CARTESIAN_POINT('',(0.0343846340530035,0.,-5.07196539412014));
#353=CARTESIAN_POINT('',(0.0343846340530035,-4.91551960215318,1.25));
#354=CARTESIAN_POINT('',(0.,0.,0.));
#355=CARTESIAN_POINT('',(1.,0.,0.));
#356=CARTESIAN_POINT('',(1.,0.,-6.09877762919061));
#357=CARTESIAN_POINT('',(1.,-5.,1.25));
#358=CARTESIAN_POINT('',(0.,0.,0.));
#359=CARTESIAN_POINT('',(0.,0.,0.));
#360=CARTESIAN_POINT('',(3.59639022534766,-2.92105808375567,-0.4));
#361=CARTESIAN_POINT('',(4.93219494437373,-5.23473972609909,-0.4));
#362=CARTESIAN_POINT('',(2.0336769850762,-0.214359353944897,-0.4));
#363=CARTESIAN_POINT('',(3.78203087140277,2.81387840678322,-0.4));
#364=CARTESIAN_POINT('',(1.20468060221314,-1.65022320835452,-0.4));
#365=CARTESIAN_POINT('',(4.,-3.26410161513775,-0.4));
#366=CARTESIAN_POINT('',(1.44363549485771,-5.23473972609909,-0.4));
#367=CARTESIAN_POINT('',(14.,-5.23473972609909,-0.4));
#368=CARTESIAN_POINT('',(-4.99796845514841,10.,-0.4));
#369=CARTESIAN_POINT('',(2.0336769850762,0.,0.));
#370=CARTESIAN_POINT('',(5.17971580578053,5.23473972609909,-0.4));
#371=CARTESIAN_POINT('',(2.21441533553851,-2.23319382845005,-4.75135194703283));
#372=CARTESIAN_POINT('',(14.,5.23473972609909,-0.4));
#373=CARTESIAN_POINT('',(1.1778112844337,5.23473972609909,-0.4));
#374=CARTESIAN_POINT('',(1.1778112844337,5.23473972609909,-0.4));
#375=CARTESIAN_POINT('',(1.56428862484438,5.31242134158552,0.616607596435928));
#376=CARTESIAN_POINT('',(1.71723280595913,5.0788710015422,1.71515737332282));
#377=CARTESIAN_POINT('',(1.68618193521501,3.98473175854238,3.58589016536113));
#378=CARTESIAN_POINT('',(1.61941894749677,3.05640766539112,4.36443132304084));
#379=CARTESIAN_POINT('',(2.21441533553851,2.23319382845005,4.75135194703283));
#380=CARTESIAN_POINT('',(2.21441533553851,2.23319382845005,4.75135194703283));
#381=CARTESIAN_POINT('',(2.0336769850762,0.,0.));
#382=CARTESIAN_POINT('',(1.44363549485771,-5.23473972609909,-0.4));
#383=CARTESIAN_POINT('',(1.69837078457444,-5.16507703806986,-1.31166510113372));
#384=CARTESIAN_POINT('',(1.71052494966113,-4.84436426910356,-2.23343857702774));
#385=CARTESIAN_POINT('',(1.67792272954834,-3.7610622810004,-3.78292526592307));
#386=CARTESIAN_POINT('',(1.69548984490107,-2.95115893348226,-4.41389952097087));
#387=CARTESIAN_POINT('',(2.21441533553851,-2.23319382845005,-4.75135194703283));
#388=CARTESIAN_POINT('',(27.6681552367278,0.,0.));
#389=CARTESIAN_POINT('',(27.6681552367278,0.,-5.25));
#390=CARTESIAN_POINT('',(0.,0.,0.));
#391=CARTESIAN_POINT('',(130.,0.,0.));
#392=CARTESIAN_POINT('',(130.,0.,5.));
#393=CARTESIAN_POINT('',(130.,-6.,0.));
#394=CARTESIAN_POINT('',(129.,0.,0.));
#395=CARTESIAN_POINT('',(129.,0.,6.));
#396=CARTESIAN_POINT('',(30.,0.,0.));
#397=CARTESIAN_POINT('',(30.,0.,-6.));
#398=CARTESIAN_POINT('',(0.,0.,0.));
#399=CARTESIAN_POINT('',(27.6681552367278,0.,0.));
#400=CARTESIAN_POINT('',(1.57596189432334,1.86458256229942,2.));
#401=CARTESIAN_POINT('',(1.01903995615803,1.54304353138208,-0.4));
#402=CARTESIAN_POINT('',(3.59639022534766,-2.92105808375567,-0.4));
#403=CARTESIAN_POINT('',(3.97927405783631,-2.7,1.25));
#404=CARTESIAN_POINT('',(4.,3.26410161513775,-0.4));
#405=CARTESIAN_POINT('',(4.,3.26410161513775,1.25));
#406=CARTESIAN_POINT('',(1.57596189432334,-1.86458256229942,-2.));
#407=CARTESIAN_POINT('',(3.78203087140277,2.81387840678322,-0.4));
#408=CARTESIAN_POINT('',(3.97927405783631,2.7,-1.25));
#409=CARTESIAN_POINT('',(4.,-3.26410161513775,-1.25));
#410=CARTESIAN_POINT('',(130.,0.,0.));
#411=CARTESIAN_POINT('',(18.,20.,-0.4));
#412=MECHANICAL_DESIGN_GEOMETRIC_PRESENTATION_REPRESENTATION('',(#41,#42),
#413);
#413=(
GEOMETRIC_REPRESENTATION_CONTEXT(3)
GLOBAL_UNCERTAINTY_ASSIGNED_CONTEXT((#414))
GLOBAL_UNIT_ASSIGNED_CONTEXT((#420,#416,#415))
REPRESENTATION_CONTEXT('12K2R030A12-SLC12-A-SIM',
'TOP_LEVEL_ASSEMBLY_PART')
);
#414=UNCERTAINTY_MEASURE_WITH_UNIT(LENGTH_MEASURE(0.0508),#420,
'DISTANCE_ACCURACY_VALUE','Maximum Tolerance applied to model');
#415=(
NAMED_UNIT(*)
SI_UNIT($,.STERADIAN.)
SOLID_ANGLE_UNIT()
);
#416=(
CONVERSION_BASED_UNIT('DEGREE',#418)
NAMED_UNIT(#417)
PLANE_ANGLE_UNIT()
);
#417=DIMENSIONAL_EXPONENTS(0.,0.,0.,0.,0.,0.,0.);
#418=PLANE_ANGLE_MEASURE_WITH_UNIT(PLANE_ANGLE_MEASURE(0.0174532925),#419);
#419=(
NAMED_UNIT(*)
PLANE_ANGLE_UNIT()
SI_UNIT($,.RADIAN.)
);
#420=(
LENGTH_UNIT()
NAMED_UNIT(*)
SI_UNIT(.MILLI.,.METRE.)
);
ENDSEC;
END-ISO-10303-21;
