ISO-10303-21;
HEADER;
/* Generated by software containing ST-Developer
 * from STEP Tools, Inc. (www.steptools.com) 
 */
/* OPTION: using custom schema-name function */

FILE_DESCRIPTION(
/* description */ (''),
/* implementation_level */ '2;1');

FILE_NAME(
/* name */ '10N1R027B16-SSD09-A.stp',
/* time_stamp */ '2020-02-07T07:31:37+01:00',
/* author */ (''),
/* organization */ (''),
/* preprocessor_version */ 'ST-DEVELOPER v16.7',
/* originating_system */ 'SIEMENS PLM Software NX 12.0',
/* authorisation */ '');

FILE_SCHEMA (('AUTOMOTIVE_DESIGN { 1 0 10303 214 3 1 1 1 }'));
ENDSEC;

DATA;
#10=PROPERTY_DEFINITION_REPRESENTATION(#14,#12);
#11=PROPERTY_DEFINITION_REPRESENTATION(#15,#13);
#12=REPRESENTATION('',(#16),#584);
#13=REPRESENTATION('',(#17),#584);
#14=PROPERTY_DEFINITION('pmi validation property','',#21);
#15=PROPERTY_DEFINITION('pmi validation property','',#21);
#16=VALUE_REPRESENTATION_ITEM('number of annotations',COUNT_MEASURE(0.));
#17=VALUE_REPRESENTATION_ITEM('number of views',COUNT_MEASURE(0.));
#18=SHAPE_REPRESENTATION_RELATIONSHIP('None',
'relationship between pp07321CEE9Ebekq-None and pp07321CEE9Ebekq-None',
#30,#19);
#19=ADVANCED_BREP_SHAPE_REPRESENTATION('pp07321CEE9Ebekq-None',(#69,#70),
#584);
#20=SHAPE_DEFINITION_REPRESENTATION(#21,#30);
#21=PRODUCT_DEFINITION_SHAPE('','',#22);
#22=PRODUCT_DEFINITION(' ','',#24,#23);
#23=PRODUCT_DEFINITION_CONTEXT('part definition',#29,'design');
#24=PRODUCT_DEFINITION_FORMATION_WITH_SPECIFIED_SOURCE(' ',' ',#26,
 .NOT_KNOWN.);
#25=PRODUCT_RELATED_PRODUCT_CATEGORY('part','',(#26));
#26=PRODUCT('pp07321CEE9Ebekq','pp07321CEE9Ebekq',' ',(#27));
#27=PRODUCT_CONTEXT(' ',#29,'mechanical');
#28=APPLICATION_PROTOCOL_DEFINITION('international standard',
'automotive_design',2010,#29);
#29=APPLICATION_CONTEXT(
'core data for automotive mechanical design processes');
#30=SHAPE_REPRESENTATION('pp07321CEE9Ebekq-None',(#316),#584);
#31=TOROIDAL_SURFACE('',#342,8.95,1.2);
#32=PLANE('',#338);
#33=PLANE('',#341);
#34=PLANE('',#344);
#35=PLANE('',#345);
#36=PLANE('',#346);
#37=CYLINDRICAL_SURFACE('',#331,7.75);
#38=CYLINDRICAL_SURFACE('',#336,8.);
#39=CYLINDRICAL_SURFACE('',#340,10.2770228524888);
#40=CONICAL_SURFACE('',#328,5.57573593128809,45.);
#41=CONICAL_SURFACE('',#343,7.,45.);
#42=FACE_OUTER_BOUND('',#188,.T.);
#43=FACE_OUTER_BOUND('',#194,.T.);
#44=FACE_OUTER_BOUND('',#199,.T.);
#45=FACE_OUTER_BOUND('',#204,.T.);
#46=FACE_OUTER_BOUND('',#205,.T.);
#47=FACE_OUTER_BOUND('',#206,.T.);
#48=ELLIPSE('',#327,6.1336600577008,6.08688970188436);
#49=ELLIPSE('',#332,11.4137455551987,8.);
#50=ELLIPSE('',#333,11.4137455551987,8.);
#51=PRESENTATION_LAYER_ASSIGNMENT('96','Layer 96',(#69));
#52=PRESENTATION_LAYER_ASSIGNMENT('14','Layer 14',(#70));
#53=STYLED_ITEM('',(#55),#69);
#54=STYLED_ITEM('',(#56),#70);
#55=PRESENTATION_STYLE_ASSIGNMENT((#57));
#56=PRESENTATION_STYLE_ASSIGNMENT((#58));
#57=SURFACE_STYLE_USAGE(.BOTH.,#59);
#58=SURFACE_STYLE_USAGE(.BOTH.,#60);
#59=SURFACE_SIDE_STYLE('',(#61));
#60=SURFACE_SIDE_STYLE('',(#62));
#61=SURFACE_STYLE_FILL_AREA(#63);
#62=SURFACE_STYLE_FILL_AREA(#64);
#63=FILL_AREA_STYLE('',(#65));
#64=FILL_AREA_STYLE('',(#66));
#65=FILL_AREA_STYLE_COLOUR('',#67);
#66=FILL_AREA_STYLE_COLOUR('',#68);
#67=COLOUR_RGB('Light Gray',0.8,0.8,0.8);
#68=COLOUR_RGB('Silver Gray',0.6,0.6,0.6);
#69=MANIFOLD_SOLID_BREP('',#71);
#70=MANIFOLD_SOLID_BREP('',#72);
#71=CLOSED_SHELL('',(#93,#94,#95,#96,#97,#98,#99,#100));
#72=CLOSED_SHELL('',(#101,#102,#103,#104,#105,#106,#107,#108,#109,#110,
#111,#112,#113));
#73=LINE('',#453,#83);
#74=LINE('',#476,#84);
#75=LINE('',#499,#85);
#76=LINE('',#520,#86);
#77=LINE('',#545,#87);
#78=LINE('',#554,#88);
#79=LINE('',#559,#89);
#80=LINE('',#572,#90);
#81=LINE('',#578,#91);
#82=LINE('',#580,#92);
#83=VECTOR('',#356,8.02114542312971);
#84=VECTOR('',#363,8.02114542312969);
#85=VECTOR('',#370,8.0211454231297);
#86=VECTOR('',#375,8.02114542312969);
#87=VECTOR('',#381,8.2181835174708);
#88=VECTOR('',#393,1.);
#89=VECTOR('',#396,1.);
#90=VECTOR('',#411,4.13242990739061);
#91=VECTOR('',#421,1.);
#92=VECTOR('',#424,1.);
#93=ADVANCED_FACE('',(#139,#140),#114,.T.);
#94=ADVANCED_FACE('',(#141,#142),#115,.T.);
#95=ADVANCED_FACE('',(#143,#144),#116,.T.);
#96=ADVANCED_FACE('',(#145,#146),#117,.T.);
#97=ADVANCED_FACE('',(#147,#148),#118,.T.);
#98=ADVANCED_FACE('',(#149,#150),#119,.T.);
#99=ADVANCED_FACE('',(#151,#152),#120,.T.);
#100=ADVANCED_FACE('',(#153,#154),#121,.T.);
#101=ADVANCED_FACE('',(#155,#156),#122,.T.);
#102=ADVANCED_FACE('',(#42),#40,.T.);
#103=ADVANCED_FACE('',(#157,#158),#37,.T.);
#104=ADVANCED_FACE('',(#159,#160,#161),#38,.T.);
#105=ADVANCED_FACE('',(#43),#32,.F.);
#106=ADVANCED_FACE('',(#162,#163),#123,.T.);
#107=ADVANCED_FACE('',(#164,#165),#39,.T.);
#108=ADVANCED_FACE('',(#44),#33,.T.);
#109=ADVANCED_FACE('',(#166,#167),#31,.F.);
#110=ADVANCED_FACE('',(#168,#169),#41,.T.);
#111=ADVANCED_FACE('',(#45),#34,.F.);
#112=ADVANCED_FACE('',(#46),#35,.F.);
#113=ADVANCED_FACE('',(#47),#36,.F.);
#114=SURFACE_OF_REVOLUTION('',#134,#124);
#115=SURFACE_OF_REVOLUTION('',#73,#125);
#116=SURFACE_OF_REVOLUTION('',#135,#126);
#117=SURFACE_OF_REVOLUTION('',#74,#127);
#118=SURFACE_OF_REVOLUTION('',#136,#128);
#119=SURFACE_OF_REVOLUTION('',#75,#129);
#120=SURFACE_OF_REVOLUTION('',#137,#130);
#121=SURFACE_OF_REVOLUTION('',#76,#131);
#122=SURFACE_OF_REVOLUTION('',#77,#132);
#123=SURFACE_OF_REVOLUTION('',#80,#133);
#124=AXIS1_PLACEMENT('',#450,#353);
#125=AXIS1_PLACEMENT('',#454,#357);
#126=AXIS1_PLACEMENT('',#473,#360);
#127=AXIS1_PLACEMENT('',#477,#364);
#128=AXIS1_PLACEMENT('',#496,#367);
#129=AXIS1_PLACEMENT('',#500,#371);
#130=AXIS1_PLACEMENT('',#519,#374);
#131=AXIS1_PLACEMENT('',#521,#376);
#132=AXIS1_PLACEMENT('',#546,#382);
#133=AXIS1_PLACEMENT('',#573,#412);
#134=B_SPLINE_CURVE_WITH_KNOTS('',3,(#434,#435,#436,#437,#438,#439,#440,
#441,#442,#443,#444,#445,#446,#447,#448,#449),.UNSPECIFIED.,.F.,.F.,(4,
3,3,3,3,4),(0.,0.139625312225804,0.353401439692075,0.567712102478455,0.783776616869832,
1.),.UNSPECIFIED.);
#135=B_SPLINE_CURVE_WITH_KNOTS('',3,(#457,#458,#459,#460,#461,#462,#463,
#464,#465,#466,#467,#468,#469,#470,#471,#472),.UNSPECIFIED.,.F.,.F.,(4,
3,3,3,3,4),(0.,0.139625312225805,0.353401439692075,0.567712102478456,0.783776616869833,
1.),.UNSPECIFIED.);
#136=B_SPLINE_CURVE_WITH_KNOTS('',3,(#480,#481,#482,#483,#484,#485,#486,
#487,#488,#489,#490,#491,#492,#493,#494,#495),.UNSPECIFIED.,.F.,.F.,(4,
3,3,3,3,4),(0.,0.139625312225806,0.353401439692077,0.567712102478456,0.783776616869834,
1.),.UNSPECIFIED.);
#137=B_SPLINE_CURVE_WITH_KNOTS('',3,(#503,#504,#505,#506,#507,#508,#509,
#510,#511,#512,#513,#514,#515,#516,#517,#518),.UNSPECIFIED.,.F.,.F.,(4,
3,3,3,3,4),(0.,0.139625312225804,0.353401439692075,0.567712102478457,0.783776616869834,
1.),.UNSPECIFIED.);
#138=B_SPLINE_CURVE_WITH_KNOTS('',3,(#524,#525,#526,#527,#528,#529,#530,
#531,#532,#533,#534,#535,#536,#537,#538,#539,#540,#541),.UNSPECIFIED.,.F.,
 .F.,(4,2,2,2,2,2,2,2,4),(0.,0.125,0.25,0.375,0.5,0.625,0.75,0.875,1.),
 .UNSPECIFIED.);
#139=FACE_BOUND('',#170,.T.);
#140=FACE_BOUND('',#171,.T.);
#141=FACE_BOUND('',#172,.T.);
#142=FACE_BOUND('',#173,.T.);
#143=FACE_BOUND('',#174,.T.);
#144=FACE_BOUND('',#175,.T.);
#145=FACE_BOUND('',#176,.T.);
#146=FACE_BOUND('',#177,.T.);
#147=FACE_BOUND('',#178,.T.);
#148=FACE_BOUND('',#179,.T.);
#149=FACE_BOUND('',#180,.T.);
#150=FACE_BOUND('',#181,.T.);
#151=FACE_BOUND('',#182,.T.);
#152=FACE_BOUND('',#183,.T.);
#153=FACE_BOUND('',#184,.T.);
#154=FACE_BOUND('',#185,.T.);
#155=FACE_BOUND('',#186,.T.);
#156=FACE_BOUND('',#187,.T.);
#157=FACE_BOUND('',#189,.T.);
#158=FACE_BOUND('',#190,.T.);
#159=FACE_BOUND('',#191,.T.);
#160=FACE_BOUND('',#192,.T.);
#161=FACE_BOUND('',#193,.T.);
#162=FACE_BOUND('',#195,.T.);
#163=FACE_BOUND('',#196,.T.);
#164=FACE_BOUND('',#197,.T.);
#165=FACE_BOUND('',#198,.T.);
#166=FACE_BOUND('',#200,.T.);
#167=FACE_BOUND('',#201,.T.);
#168=FACE_BOUND('',#202,.T.);
#169=FACE_BOUND('',#203,.T.);
#170=EDGE_LOOP('',(#207));
#171=EDGE_LOOP('',(#208));
#172=EDGE_LOOP('',(#209));
#173=EDGE_LOOP('',(#210));
#174=EDGE_LOOP('',(#211));
#175=EDGE_LOOP('',(#212));
#176=EDGE_LOOP('',(#213));
#177=EDGE_LOOP('',(#214));
#178=EDGE_LOOP('',(#215));
#179=EDGE_LOOP('',(#216));
#180=EDGE_LOOP('',(#217));
#181=EDGE_LOOP('',(#218));
#182=EDGE_LOOP('',(#219));
#183=EDGE_LOOP('',(#220));
#184=EDGE_LOOP('',(#221));
#185=EDGE_LOOP('',(#222));
#186=EDGE_LOOP('',(#223));
#187=EDGE_LOOP('',(#224,#225));
#188=EDGE_LOOP('',(#226,#227));
#189=EDGE_LOOP('',(#228));
#190=EDGE_LOOP('',(#229));
#191=EDGE_LOOP('',(#230,#231,#232,#233));
#192=EDGE_LOOP('',(#234));
#193=EDGE_LOOP('',(#235));
#194=EDGE_LOOP('',(#236));
#195=EDGE_LOOP('',(#237));
#196=EDGE_LOOP('',(#238));
#197=EDGE_LOOP('',(#239));
#198=EDGE_LOOP('',(#240));
#199=EDGE_LOOP('',(#241,#242));
#200=EDGE_LOOP('',(#243));
#201=EDGE_LOOP('',(#244));
#202=EDGE_LOOP('',(#245));
#203=EDGE_LOOP('',(#246));
#204=EDGE_LOOP('',(#247,#248));
#205=EDGE_LOOP('',(#249,#250,#251,#252));
#206=EDGE_LOOP('',(#253,#254));
#207=ORIENTED_EDGE('',*,*,#276,.F.);
#208=ORIENTED_EDGE('',*,*,#277,.T.);
#209=ORIENTED_EDGE('',*,*,#278,.F.);
#210=ORIENTED_EDGE('',*,*,#276,.T.);
#211=ORIENTED_EDGE('',*,*,#279,.F.);
#212=ORIENTED_EDGE('',*,*,#278,.T.);
#213=ORIENTED_EDGE('',*,*,#280,.F.);
#214=ORIENTED_EDGE('',*,*,#279,.T.);
#215=ORIENTED_EDGE('',*,*,#281,.F.);
#216=ORIENTED_EDGE('',*,*,#280,.T.);
#217=ORIENTED_EDGE('',*,*,#282,.F.);
#218=ORIENTED_EDGE('',*,*,#281,.T.);
#219=ORIENTED_EDGE('',*,*,#283,.F.);
#220=ORIENTED_EDGE('',*,*,#282,.T.);
#221=ORIENTED_EDGE('',*,*,#277,.F.);
#222=ORIENTED_EDGE('',*,*,#283,.T.);
#223=ORIENTED_EDGE('',*,*,#284,.T.);
#224=ORIENTED_EDGE('',*,*,#285,.F.);
#225=ORIENTED_EDGE('',*,*,#286,.F.);
#226=ORIENTED_EDGE('',*,*,#287,.F.);
#227=ORIENTED_EDGE('',*,*,#286,.T.);
#228=ORIENTED_EDGE('',*,*,#288,.T.);
#229=ORIENTED_EDGE('',*,*,#289,.T.);
#230=ORIENTED_EDGE('',*,*,#290,.T.);
#231=ORIENTED_EDGE('',*,*,#291,.T.);
#232=ORIENTED_EDGE('',*,*,#292,.T.);
#233=ORIENTED_EDGE('',*,*,#293,.T.);
#234=ORIENTED_EDGE('',*,*,#294,.T.);
#235=ORIENTED_EDGE('',*,*,#295,.T.);
#236=ORIENTED_EDGE('',*,*,#296,.T.);
#237=ORIENTED_EDGE('',*,*,#297,.T.);
#238=ORIENTED_EDGE('',*,*,#289,.F.);
#239=ORIENTED_EDGE('',*,*,#284,.F.);
#240=ORIENTED_EDGE('',*,*,#297,.F.);
#241=ORIENTED_EDGE('',*,*,#287,.T.);
#242=ORIENTED_EDGE('',*,*,#285,.T.);
#243=ORIENTED_EDGE('',*,*,#288,.F.);
#244=ORIENTED_EDGE('',*,*,#295,.F.);
#245=ORIENTED_EDGE('',*,*,#294,.F.);
#246=ORIENTED_EDGE('',*,*,#296,.F.);
#247=ORIENTED_EDGE('',*,*,#298,.F.);
#248=ORIENTED_EDGE('',*,*,#291,.F.);
#249=ORIENTED_EDGE('',*,*,#298,.T.);
#250=ORIENTED_EDGE('',*,*,#290,.F.);
#251=ORIENTED_EDGE('',*,*,#299,.F.);
#252=ORIENTED_EDGE('',*,*,#292,.F.);
#253=ORIENTED_EDGE('',*,*,#299,.T.);
#254=ORIENTED_EDGE('',*,*,#293,.F.);
#255=VERTEX_POINT('',#431);
#256=VERTEX_POINT('',#433);
#257=VERTEX_POINT('',#452);
#258=VERTEX_POINT('',#456);
#259=VERTEX_POINT('',#475);
#260=VERTEX_POINT('',#479);
#261=VERTEX_POINT('',#498);
#262=VERTEX_POINT('',#502);
#263=VERTEX_POINT('',#523);
#264=VERTEX_POINT('',#542);
#265=VERTEX_POINT('',#543);
#266=VERTEX_POINT('',#550);
#267=VERTEX_POINT('',#552);
#268=VERTEX_POINT('',#555);
#269=VERTEX_POINT('',#556);
#270=VERTEX_POINT('',#558);
#271=VERTEX_POINT('',#560);
#272=VERTEX_POINT('',#563);
#273=VERTEX_POINT('',#565);
#274=VERTEX_POINT('',#568);
#275=VERTEX_POINT('',#571);
#276=EDGE_CURVE('',#255,#255,#300,.T.);
#277=EDGE_CURVE('',#256,#256,#301,.T.);
#278=EDGE_CURVE('',#257,#257,#302,.T.);
#279=EDGE_CURVE('',#258,#258,#303,.T.);
#280=EDGE_CURVE('',#259,#259,#304,.T.);
#281=EDGE_CURVE('',#260,#260,#305,.T.);
#282=EDGE_CURVE('',#261,#261,#306,.T.);
#283=EDGE_CURVE('',#262,#262,#307,.T.);
#284=EDGE_CURVE('',#263,#263,#308,.T.);
#285=EDGE_CURVE('',#264,#265,#138,.T.);
#286=EDGE_CURVE('',#265,#264,#309,.T.);
#287=EDGE_CURVE('',#265,#264,#48,.T.);
#288=EDGE_CURVE('',#266,#266,#310,.T.);
#289=EDGE_CURVE('',#267,#267,#311,.T.);
#290=EDGE_CURVE('',#268,#269,#78,.T.);
#291=EDGE_CURVE('',#269,#270,#49,.T.);
#292=EDGE_CURVE('',#270,#271,#79,.T.);
#293=EDGE_CURVE('',#271,#268,#50,.T.);
#294=EDGE_CURVE('',#272,#272,#312,.T.);
#295=EDGE_CURVE('',#273,#273,#313,.T.);
#296=EDGE_CURVE('',#274,#274,#314,.T.);
#297=EDGE_CURVE('',#275,#275,#315,.T.);
#298=EDGE_CURVE('',#270,#269,#81,.T.);
#299=EDGE_CURVE('',#271,#268,#82,.T.);
#300=CIRCLE('',#317,4.15622926034693);
#301=CIRCLE('',#318,5.21568301035654);
#302=CIRCLE('',#319,1.58613558346606);
#303=CIRCLE('',#320,1.58613558346605);
#304=CIRCLE('',#321,4.15622926034693);
#305=CIRCLE('',#322,5.21568301035654);
#306=CIRCLE('',#323,10.879484132773);
#307=CIRCLE('',#324,10.879484132773);
#308=CIRCLE('',#325,10.2770228524888);
#309=CIRCLE('',#326,5.60250804259546);
#310=CIRCLE('',#329,7.75);
#311=CIRCLE('',#330,7.75);
#312=CIRCLE('',#334,8.);
#313=CIRCLE('',#335,8.);
#314=CIRCLE('',#337,7.);
#315=CIRCLE('',#339,10.2770228524888);
#316=AXIS2_PLACEMENT_3D('',#429,#347,#348);
#317=AXIS2_PLACEMENT_3D('',#430,#349,#350);
#318=AXIS2_PLACEMENT_3D('',#432,#351,#352);
#319=AXIS2_PLACEMENT_3D('',#451,#354,#355);
#320=AXIS2_PLACEMENT_3D('',#455,#358,#359);
#321=AXIS2_PLACEMENT_3D('',#474,#361,#362);
#322=AXIS2_PLACEMENT_3D('',#478,#365,#366);
#323=AXIS2_PLACEMENT_3D('',#497,#368,#369);
#324=AXIS2_PLACEMENT_3D('',#501,#372,#373);
#325=AXIS2_PLACEMENT_3D('',#522,#377,#378);
#326=AXIS2_PLACEMENT_3D('',#544,#379,#380);
#327=AXIS2_PLACEMENT_3D('',#547,#383,#384);
#328=AXIS2_PLACEMENT_3D('',#548,#385,#386);
#329=AXIS2_PLACEMENT_3D('',#549,#387,#388);
#330=AXIS2_PLACEMENT_3D('',#551,#389,#390);
#331=AXIS2_PLACEMENT_3D('',#553,#391,#392);
#332=AXIS2_PLACEMENT_3D('',#557,#394,#395);
#333=AXIS2_PLACEMENT_3D('',#561,#397,#398);
#334=AXIS2_PLACEMENT_3D('',#562,#399,#400);
#335=AXIS2_PLACEMENT_3D('',#564,#401,#402);
#336=AXIS2_PLACEMENT_3D('',#566,#403,#404);
#337=AXIS2_PLACEMENT_3D('',#567,#405,#406);
#338=AXIS2_PLACEMENT_3D('',#569,#407,#408);
#339=AXIS2_PLACEMENT_3D('',#570,#409,#410);
#340=AXIS2_PLACEMENT_3D('',#574,#413,#414);
#341=AXIS2_PLACEMENT_3D('',#575,#415,#416);
#342=AXIS2_PLACEMENT_3D('',#576,#417,#418);
#343=AXIS2_PLACEMENT_3D('',#577,#419,#420);
#344=AXIS2_PLACEMENT_3D('',#579,#422,#423);
#345=AXIS2_PLACEMENT_3D('',#581,#425,#426);
#346=AXIS2_PLACEMENT_3D('',#582,#427,#428);
#347=DIRECTION('',(0.,0.,1.));
#348=DIRECTION('',(1.,0.,0.));
#349=DIRECTION('',(-1.,0.,0.));
#350=DIRECTION('',(0.,0.,1.));
#351=DIRECTION('',(-1.,0.,0.));
#352=DIRECTION('',(0.,0.,1.));
#353=DIRECTION('',(-1.,0.,0.));
#354=DIRECTION('',(-1.,0.,0.));
#355=DIRECTION('',(0.,0.,1.));
#356=DIRECTION('',(0.707106781186548,0.707106781186548,0.));
#357=DIRECTION('',(-1.,0.,0.));
#358=DIRECTION('',(-1.,0.,0.));
#359=DIRECTION('',(0.,0.,1.));
#360=DIRECTION('',(-1.,0.,0.));
#361=DIRECTION('',(-1.,0.,0.));
#362=DIRECTION('',(0.,0.,1.));
#363=DIRECTION('',(0.707106781186547,-0.707106781186548,0.));
#364=DIRECTION('',(-1.,0.,0.));
#365=DIRECTION('',(-1.,0.,0.));
#366=DIRECTION('',(0.,0.,1.));
#367=DIRECTION('',(-1.,0.,0.));
#368=DIRECTION('',(-1.,0.,0.));
#369=DIRECTION('',(0.,0.,1.));
#370=DIRECTION('',(-0.707106781186548,-0.707106781186547,0.));
#371=DIRECTION('',(-1.,0.,0.));
#372=DIRECTION('',(-1.,0.,0.));
#373=DIRECTION('',(0.,0.,1.));
#374=DIRECTION('',(-1.,0.,0.));
#375=DIRECTION('',(-0.707106781186547,0.707106781186548,0.));
#376=DIRECTION('',(-1.,0.,0.));
#377=DIRECTION('',(-1.,0.,0.));
#378=DIRECTION('',(0.,0.,-1.));
#379=DIRECTION('',(-1.,0.,0.));
#380=DIRECTION('',(0.,0.,-1.));
#381=DIRECTION('',(0.707106781186547,-0.707106781186548,0.));
#382=DIRECTION('',(1.,0.,0.));
#383=DIRECTION('',(-0.996194698091745,0.087155742747658,0.));
#384=DIRECTION('',(0.087155742747658,0.996194698091745,0.));
#385=DIRECTION('',(1.,0.,0.));
#386=DIRECTION('',(-1.09544151463152E-16,0.,-1.));
#387=DIRECTION('',(-1.,0.,0.));
#388=DIRECTION('',(0.,0.,-1.));
#389=DIRECTION('',(1.,0.,0.));
#390=DIRECTION('',(0.,0.,-1.));
#391=DIRECTION('',(1.,0.,0.));
#392=DIRECTION('',(0.,0.,-1.));
#393=DIRECTION('',(-1.,0.,0.));
#394=DIRECTION('',(-0.700909264299852,0.,-0.713250449154183));
#395=DIRECTION('',(0.713250449154182,0.,-0.700909264299851));
#396=DIRECTION('',(1.,0.,0.));
#397=DIRECTION('',(0.700909264299851,0.,-0.713250449154182));
#398=DIRECTION('',(0.713250449154182,0.,0.700909264299851));
#399=DIRECTION('',(-1.,0.,0.));
#400=DIRECTION('',(0.,0.,1.));
#401=DIRECTION('',(1.,0.,0.));
#402=DIRECTION('',(0.,0.,-1.));
#403=DIRECTION('',(1.,0.,0.));
#404=DIRECTION('',(0.,0.,-1.));
#405=DIRECTION('',(1.,0.,0.));
#406=DIRECTION('',(0.,0.,1.));
#407=DIRECTION('',(-1.,0.,0.));
#408=DIRECTION('',(0.,0.,1.));
#409=DIRECTION('',(1.,0.,0.));
#410=DIRECTION('',(0.,0.,-1.));
#411=DIRECTION('',(0.707106781186547,0.707106781186548,0.));
#412=DIRECTION('',(1.,0.,0.));
#413=DIRECTION('',(1.,0.,0.));
#414=DIRECTION('',(0.,0.,-1.));
#415=DIRECTION('',(-0.996194698091746,0.087155742747658,0.));
#416=DIRECTION('',(-0.087155742747658,-0.996194698091746,0.));
#417=DIRECTION('',(1.,0.,0.));
#418=DIRECTION('',(0.,0.,-1.));
#419=DIRECTION('',(-1.,0.,0.));
#420=DIRECTION('',(-4.13439557333103E-17,0.,1.));
#421=DIRECTION('',(0.,-1.,0.));
#422=DIRECTION('',(-0.700909264299851,0.,-0.713250449154182));
#423=DIRECTION('',(-0.713250449154182,0.,0.700909264299851));
#424=DIRECTION('',(0.,-1.,0.));
#425=DIRECTION('',(8.67361737988404E-17,0.,-1.));
#426=DIRECTION('',(-1.,0.,-8.67361737988404E-17));
#427=DIRECTION('',(0.700909264299851,0.,-0.713250449154181));
#428=DIRECTION('',(-0.713250449154182,0.,-0.700909264299851));
#429=CARTESIAN_POINT('',(0.,0.,0.));
#430=CARTESIAN_POINT('',(0.200322034732545,0.,0.));
#431=CARTESIAN_POINT('',(0.200322034732545,0.,4.15622926034693));
#432=CARTESIAN_POINT('',(0.200322034732544,0.,0.));
#433=CARTESIAN_POINT('',(0.200322034732544,0.,5.21568301035654));
#434=CARTESIAN_POINT('',(0.200322034732544,-5.2003220346938,0.4));
#435=CARTESIAN_POINT('',(0.161326016850632,-5.16132601681189,0.4));
#436=CARTESIAN_POINT('',(0.126395501316841,-5.11780013807756,0.4));
#437=CARTESIAN_POINT('',(0.096800613797674,-5.0712649744481,0.4));
#438=CARTESIAN_POINT('',(0.0518548933580476,-5.00059207684889,0.4));
#439=CARTESIAN_POINT('',(0.0183913838984964,-4.92124990898618,0.4));
#440=CARTESIAN_POINT('',(-0.000752514902112367,-4.83971287826015,0.4));
#441=CARTESIAN_POINT('',(-0.019941314213793,-4.7579846088325,0.4));
#442=CARTESIAN_POINT('',(-0.0252608712625868,-4.67180403260994,0.4));
#443=CARTESIAN_POINT('',(-0.0162516727213173,-4.58833814506115,0.4));
#444=CARTESIAN_POINT('',(-0.00717047940771032,-4.50420526060421,0.4));
#445=CARTESIAN_POINT('',(0.0167253215701831,-4.42048570439837,0.4));
#446=CARTESIAN_POINT('',(0.0533534065529455,-4.34420206454328,0.4));
#447=CARTESIAN_POINT('',(0.0900131902251111,-4.2678524072754,0.4));
#448=CARTESIAN_POINT('',(0.140433764162218,-4.19682453604074,0.4));
#449=CARTESIAN_POINT('',(0.200322034732545,-4.13693626547038,0.4));
#450=CARTESIAN_POINT('',(0.,0.,0.));
#451=CARTESIAN_POINT('',(5.872128356311,0.,0.));
#452=CARTESIAN_POINT('',(5.872128356311,0.,1.58613558346606));
#453=CARTESIAN_POINT('',(0.200322034732545,-4.13693626547038,0.4));
#454=CARTESIAN_POINT('',(0.,0.,0.));
#455=CARTESIAN_POINT('',(6.93551412553442,0.,0.));
#456=CARTESIAN_POINT('',(6.93551412553442,0.,1.58613558346605));
#457=CARTESIAN_POINT('',(5.872128356311,1.53487005610807,0.4));
#458=CARTESIAN_POINT('',(5.91112437419291,1.57386607398999,0.4));
#459=CARTESIAN_POINT('',(5.95465025292724,1.60879658952378,0.4));
#460=CARTESIAN_POINT('',(6.0011854165567,1.63839147704295,0.4));
#461=CARTESIAN_POINT('',(6.07185831415591,1.68333719748257,0.4));
#462=CARTESIAN_POINT('',(6.15120048201862,1.71680070694212,0.4));
#463=CARTESIAN_POINT('',(6.23273751274465,1.73594460574273,0.4));
#464=CARTESIAN_POINT('',(6.31446578217231,1.75513340505441,0.4));
#465=CARTESIAN_POINT('',(6.40064635839486,1.76045296210321,0.4));
#466=CARTESIAN_POINT('',(6.48411224594365,1.75144376356194,0.4));
#467=CARTESIAN_POINT('',(6.56824513040059,1.74236257024832,0.4));
#468=CARTESIAN_POINT('',(6.65196468660643,1.71846676927043,0.4));
#469=CARTESIAN_POINT('',(6.72824832646152,1.68183868428768,0.4));
#470=CARTESIAN_POINT('',(6.8045979837294,1.64517890061551,0.4));
#471=CARTESIAN_POINT('',(6.87562585496406,1.5947583266784,0.4));
#472=CARTESIAN_POINT('',(6.93551412553442,1.53487005610807,0.4));
#473=CARTESIAN_POINT('',(0.,0.,0.));
#474=CARTESIAN_POINT('',(12.6073204471129,0.,0.));
#475=CARTESIAN_POINT('',(12.6073204471129,0.,4.15622926034693));
#476=CARTESIAN_POINT('',(6.93551412553442,1.53487005610807,0.4));
#477=CARTESIAN_POINT('',(0.,0.,0.));
#478=CARTESIAN_POINT('',(12.6073204471129,0.,0.));
#479=CARTESIAN_POINT('',(12.6073204471129,0.,5.21568301035654));
#480=CARTESIAN_POINT('',(12.6073204471129,-4.13693626547038,0.4));
#481=CARTESIAN_POINT('',(12.6463164649948,-4.17593228335229,0.4));
#482=CARTESIAN_POINT('',(12.6812469805286,-4.21945816208662,0.4));
#483=CARTESIAN_POINT('',(12.7108418680477,-4.26599332571608,0.4));
#484=CARTESIAN_POINT('',(12.7557875884874,-4.3366662233153,0.4));
#485=CARTESIAN_POINT('',(12.7892510979469,-4.416008391178,0.4));
#486=CARTESIAN_POINT('',(12.8083949967475,-4.49754542190403,0.4));
#487=CARTESIAN_POINT('',(12.8275837960592,-4.57927369133169,0.4));
#488=CARTESIAN_POINT('',(12.832903353108,-4.66545426755424,0.4));
#489=CARTESIAN_POINT('',(12.8238941545667,-4.74892015510303,0.4));
#490=CARTESIAN_POINT('',(12.8148129612531,-4.83305303955998,0.4));
#491=CARTESIAN_POINT('',(12.7909171602752,-4.91677259576581,0.4));
#492=CARTESIAN_POINT('',(12.7542890752925,-4.99305623562089,0.4));
#493=CARTESIAN_POINT('',(12.7176292916203,-5.06940589288878,0.4));
#494=CARTESIAN_POINT('',(12.6672087176832,-5.14043376412343,0.4));
#495=CARTESIAN_POINT('',(12.6073204471129,-5.2003220346938,0.4));
#496=CARTESIAN_POINT('',(0.,0.,0.));
#497=CARTESIAN_POINT('',(6.93551412553441,0.,0.));
#498=CARTESIAN_POINT('',(6.93551412553441,0.,10.879484132773));
#499=CARTESIAN_POINT('',(12.6073204471129,-5.2003220346938,0.4));
#500=CARTESIAN_POINT('',(0.,0.,0.));
#501=CARTESIAN_POINT('',(5.87212835631099,0.,0.));
#502=CARTESIAN_POINT('',(5.87212835631099,0.,10.879484132773));
#503=CARTESIAN_POINT('',(6.93551412553441,-10.8721283562722,0.4));
#504=CARTESIAN_POINT('',(6.89651810765249,-10.9111243741542,0.4));
#505=CARTESIAN_POINT('',(6.85299222891817,-10.9460548896879,0.4));
#506=CARTESIAN_POINT('',(6.80645706528871,-10.9756497772071,0.4));
#507=CARTESIAN_POINT('',(6.7357841676895,-11.0205954976467,0.4));
#508=CARTESIAN_POINT('',(6.65644199982679,-11.0540590071063,0.4));
#509=CARTESIAN_POINT('',(6.57490496910076,-11.0732029059069,0.4));
#510=CARTESIAN_POINT('',(6.4931766996731,-11.0923917052186,0.4));
#511=CARTESIAN_POINT('',(6.40699612345055,-11.0977112622674,0.4));
#512=CARTESIAN_POINT('',(6.32353023590176,-11.0887020637261,0.4));
#513=CARTESIAN_POINT('',(6.23939735144482,-11.0796208704125,0.4));
#514=CARTESIAN_POINT('',(6.15567779523898,-11.0557250694346,0.4));
#515=CARTESIAN_POINT('',(6.0793941553839,-11.0190969844518,0.4));
#516=CARTESIAN_POINT('',(6.00304449811601,-10.9824372007797,0.4));
#517=CARTESIAN_POINT('',(5.93201662688136,-10.9320166268426,0.4));
#518=CARTESIAN_POINT('',(5.87212835631099,-10.8721283562722,0.4));
#519=CARTESIAN_POINT('',(0.,0.,0.));
#520=CARTESIAN_POINT('',(5.87212835631099,-10.8721283562722,0.4));
#521=CARTESIAN_POINT('',(0.,0.,0.));
#522=CARTESIAN_POINT('',(6.18686922552717,0.,0.));
#523=CARTESIAN_POINT('',(6.18686922552717,0.,-10.2770228524888));
#524=CARTESIAN_POINT('',(1.02677211130736,-5.26972929878958,1.90211710597047));
#525=CARTESIAN_POINT('',(1.0665286569198,-4.81530990306234,3.25747350850253));
#526=CARTESIAN_POINT('',(1.1484060113752,-3.87944745922537,4.41267449031276));
#527=CARTESIAN_POINT('',(1.36097789862298,-1.44973966988654,5.87179383920362));
#528=CARTESIAN_POINT('',(1.48916413577603,0.0154357252669527,6.15175844571288));
#529=CARTESIAN_POINT('',(1.73296764942436,2.80212263786442,5.7032009147867));
#530=CARTESIAN_POINT('',(1.84748730051773,4.11108823955555,4.9716302029103));
#531=CARTESIAN_POINT('',(2.00825668545995,5.94869071812789,2.82914953251043));
#532=CARTESIAN_POINT('',(2.0542420391846,6.47430571636168,1.41318488984662));
#533=CARTESIAN_POINT('',(2.05432516231272,6.47525581806367,-1.409157824009));
#534=CARTESIAN_POINT('',(2.00820642604518,5.94811625038837,-2.82847923165622));
#535=CARTESIAN_POINT('',(1.84796119388133,4.11650486548754,-4.96665144222639));
#536=CARTESIAN_POINT('',(1.73270858889036,2.79916156241123,-5.70284008082378));
#537=CARTESIAN_POINT('',(1.49003739991852,0.0254171800897902,-6.15098713131415));
#538=CARTESIAN_POINT('',(1.36063318797869,-1.4536797305801,-5.8681046938802));
#539=CARTESIAN_POINT('',(1.14947909452452,-3.86718206270339,-4.42135871636182));
#540=CARTESIAN_POINT('',(1.06652831229819,-4.81531384210532,-3.2574617598686));
#541=CARTESIAN_POINT('',(1.02677211130736,-5.26972929878958,-1.90211710597046));
#542=CARTESIAN_POINT('',(1.02677211130736,-5.26972929878959,1.90211710597044));
#543=CARTESIAN_POINT('',(1.02677211130736,-5.26972929878959,-1.90211710597044));
#544=CARTESIAN_POINT('',(1.02677211130736,0.,0.));
#545=CARTESIAN_POINT('',(0.375735931288055,-3.96152236891498,-3.18));
#546=CARTESIAN_POINT('',(0.,0.,0.));
#547=CARTESIAN_POINT('',(1.53458369809055,0.534583698090556,0.));
#548=CARTESIAN_POINT('',(1.,0.,0.));
#549=CARTESIAN_POINT('',(25.2668560850693,0.,0.));
#550=CARTESIAN_POINT('',(25.2668560850693,0.,-7.75));
#551=CARTESIAN_POINT('',(9.32589045119737,0.,0.));
#552=CARTESIAN_POINT('',(9.32589045119737,0.,-7.75));
#553=CARTESIAN_POINT('',(0.,0.,0.));
#554=CARTESIAN_POINT('',(-5.3776427755281E-16,-5.05568986390582,6.2));
#555=CARTESIAN_POINT('',(55.5,-5.05568986390581,6.2));
#556=CARTESIAN_POINT('',(45.5,-5.05568986390582,6.2));
#557=CARTESIAN_POINT('',(51.8091658364272,0.,0.));
#558=CARTESIAN_POINT('',(45.5,5.05568986390582,6.2));
#559=CARTESIAN_POINT('',(-5.3776427755281E-16,5.05568986390582,6.2));
#560=CARTESIAN_POINT('',(55.5,5.05568986390582,6.2));
#561=CARTESIAN_POINT('',(49.1908341635728,0.,0.));
#562=CARTESIAN_POINT('',(73.,0.,0.));
#563=CARTESIAN_POINT('',(73.,0.,8.));
#564=CARTESIAN_POINT('',(26.,0.,0.));
#565=CARTESIAN_POINT('',(26.,0.,-8.));
#566=CARTESIAN_POINT('',(0.,0.,0.));
#567=CARTESIAN_POINT('',(74.,0.,0.));
#568=CARTESIAN_POINT('',(74.,0.,7.));
#569=CARTESIAN_POINT('',(74.,-8.,0.));
#570=CARTESIAN_POINT('',(6.62077325627958,0.,0.));
#571=CARTESIAN_POINT('',(6.62077325627958,0.,-10.2770228524888));
#572=CARTESIAN_POINT('',(6.40382124090337,-9.9896076785303,-3.18));
#573=CARTESIAN_POINT('',(0.,0.,0.));
#574=CARTESIAN_POINT('',(6.62077325627958,0.,0.));
#575=CARTESIAN_POINT('',(1.24390684240093,-2.78786796564405,0.));
#576=CARTESIAN_POINT('',(25.2668560850693,0.,0.));
#577=CARTESIAN_POINT('',(74.,0.,0.));
#578=CARTESIAN_POINT('',(45.5,20.,6.2));
#579=CARTESIAN_POINT('',(29.7015588544873,20.,21.7250848751896));
#580=CARTESIAN_POINT('',(55.5,20.,6.2));
#581=CARTESIAN_POINT('',(45.5,20.,6.2));
#582=CARTESIAN_POINT('',(55.5,20.,6.2));
#583=MECHANICAL_DESIGN_GEOMETRIC_PRESENTATION_REPRESENTATION('',(#53,#54),
#584);
#584=(
GEOMETRIC_REPRESENTATION_CONTEXT(3)
GLOBAL_UNCERTAINTY_ASSIGNED_CONTEXT((#585))
GLOBAL_UNIT_ASSIGNED_CONTEXT((#591,#587,#586))
REPRESENTATION_CONTEXT('10N1R027B16-SSD09-A','TOP_LEVEL_ASSEMBLY_PART')
);
#585=UNCERTAINTY_MEASURE_WITH_UNIT(LENGTH_MEASURE(0.0508),#591,
'DISTANCE_ACCURACY_VALUE','Maximum Tolerance applied to model');
#586=(
NAMED_UNIT(*)
SI_UNIT($,.STERADIAN.)
SOLID_ANGLE_UNIT()
);
#587=(
CONVERSION_BASED_UNIT('DEGREE',#589)
NAMED_UNIT(#588)
PLANE_ANGLE_UNIT()
);
#588=DIMENSIONAL_EXPONENTS(0.,0.,0.,0.,0.,0.,0.);
#589=PLANE_ANGLE_MEASURE_WITH_UNIT(PLANE_ANGLE_MEASURE(0.0174532925),#590);
#590=(
NAMED_UNIT(*)
PLANE_ANGLE_UNIT()
SI_UNIT($,.RADIAN.)
);
#591=(
LENGTH_UNIT()
NAMED_UNIT(*)
SI_UNIT(.MILLI.,.METRE.)
);
ENDSEC;
END-ISO-10303-21;
