ISO-10303-21;
HEADER;
/* Generated by software containing ST-Developer
 * from STEP Tools, Inc. (www.steptools.com) 
 */
/* OPTION: using custom schema-name function */

FILE_DESCRIPTION(
/* description */ (''),
/* implementation_level */ '2;1');

FILE_NAME(
/* name */ '10L2R050A16-SZP10_115008934ndi000_00-SIM.stp',
/* time_stamp */ '2020-01-14T08:39:18+01:00',
/* author */ (''),
/* organization */ (''),
/* preprocessor_version */ 'ST-DEVELOPER v16.7',
/* originating_system */ 'SIEMENS PLM Software NX 12.0',
/* authorisation */ '');

FILE_SCHEMA (('AUTOMOTIVE_DESIGN { 1 0 10303 214 3 1 1 1 }'));
ENDSEC;

DATA;
#10=PROPERTY_DEFINITION_REPRESENTATION(#14,#12);
#11=PROPERTY_DEFINITION_REPRESENTATION(#15,#13);
#12=REPRESENTATION('',(#16),#507);
#13=REPRESENTATION('',(#17),#507);
#14=PROPERTY_DEFINITION('pmi validation property','',#21);
#15=PROPERTY_DEFINITION('pmi validation property','',#21);
#16=VALUE_REPRESENTATION_ITEM('number of annotations',COUNT_MEASURE(0.));
#17=VALUE_REPRESENTATION_ITEM('number of views',COUNT_MEASURE(0.));
#18=SHAPE_REPRESENTATION_RELATIONSHIP('None',
'relationship between hm15442C0F1633dc-None and hm15442C0F1633dc-None',
#30,#19);
#19=ADVANCED_BREP_SHAPE_REPRESENTATION('hm15442C0F1633dc-None',(#74,#75),
#507);
#20=SHAPE_DEFINITION_REPRESENTATION(#21,#30);
#21=PRODUCT_DEFINITION_SHAPE('','',#22);
#22=PRODUCT_DEFINITION(' ','',#24,#23);
#23=PRODUCT_DEFINITION_CONTEXT('part definition',#29,'design');
#24=PRODUCT_DEFINITION_FORMATION_WITH_SPECIFIED_SOURCE(' ',' ',#26,
 .NOT_KNOWN.);
#25=PRODUCT_RELATED_PRODUCT_CATEGORY('part','',(#26));
#26=PRODUCT('hm15442C0F1633dc','hm15442C0F1633dc',' ',(#27));
#27=PRODUCT_CONTEXT(' ',#29,'mechanical');
#28=APPLICATION_PROTOCOL_DEFINITION('international standard',
'automotive_design',2010,#29);
#29=APPLICATION_CONTEXT(
'core data for automotive mechanical design processes');
#30=SHAPE_REPRESENTATION('hm15442C0F1633dc-None',(#305),#507);
#31=(
BOUNDED_CURVE()
B_SPLINE_CURVE(3,(#483,#484,#485,#486),.UNSPECIFIED.,.F.,.F.)
B_SPLINE_CURVE_WITH_KNOTS((4,4),(0.,1.),.UNSPECIFIED.)
CURVE()
GEOMETRIC_REPRESENTATION_ITEM()
RATIONAL_B_SPLINE_CURVE((1.,0.797356284687163,0.797356284687163,1.))
REPRESENTATION_ITEM('')
);
#32=SURFACE_OF_REVOLUTION('',#46,#39);
#33=SURFACE_OF_REVOLUTION('',#31,#40);
#34=SURFACE_OF_REVOLUTION('',#47,#41);
#35=SURFACE_OF_REVOLUTION('',#48,#42);
#36=SURFACE_OF_REVOLUTION('',#49,#43);
#37=SURFACE_OF_REVOLUTION('',#304,#44);
#38=SURFACE_OF_REVOLUTION('',#50,#45);
#39=AXIS1_PLACEMENT('',#480,#408);
#40=AXIS1_PLACEMENT('',#487,#411);
#41=AXIS1_PLACEMENT('',#491,#415);
#42=AXIS1_PLACEMENT('',#495,#419);
#43=AXIS1_PLACEMENT('',#499,#423);
#44=AXIS1_PLACEMENT('',#503,#428);
#45=AXIS1_PLACEMENT('',#505,#430);
#46=LINE('',#479,#51);
#47=LINE('',#490,#52);
#48=LINE('',#494,#53);
#49=LINE('',#498,#54);
#50=LINE('',#504,#55);
#51=VECTOR('',#407,0.866609043913099);
#52=VECTOR('',#414,4.06829120581549);
#53=VECTOR('',#418,0.391622186799676);
#54=VECTOR('',#422,0.207055236082153);
#55=VECTOR('',#429,4.40908390423889);
#56=PRESENTATION_LAYER_ASSIGNMENT('14','Layer 14',(#74));
#57=PRESENTATION_LAYER_ASSIGNMENT('96','Layer 96',(#75));
#58=STYLED_ITEM('',(#60),#74);
#59=STYLED_ITEM('',(#61),#75);
#60=PRESENTATION_STYLE_ASSIGNMENT((#62));
#61=PRESENTATION_STYLE_ASSIGNMENT((#63));
#62=SURFACE_STYLE_USAGE(.BOTH.,#64);
#63=SURFACE_STYLE_USAGE(.BOTH.,#65);
#64=SURFACE_SIDE_STYLE('',(#66));
#65=SURFACE_SIDE_STYLE('',(#67));
#66=SURFACE_STYLE_FILL_AREA(#68);
#67=SURFACE_STYLE_FILL_AREA(#69);
#68=FILL_AREA_STYLE('',(#70));
#69=FILL_AREA_STYLE('',(#71));
#70=FILL_AREA_STYLE_COLOUR('',#72);
#71=FILL_AREA_STYLE_COLOUR('',#73);
#72=COLOUR_RGB('Silver Gray',0.6,0.6,0.6);
#73=COLOUR_RGB('Light Gray',0.8,0.8,0.8);
#74=MANIFOLD_SOLID_BREP('',#76);
#75=MANIFOLD_SOLID_BREP('',#77);
#76=CLOSED_SHELL('',(#89,#90,#91,#92,#93,#94,#95,#96,#97,#98,#99,#100,#101,
#102,#103));
#77=CLOSED_SHELL('',(#104,#105,#106,#107,#108,#109,#110));
#78=CYLINDRICAL_SURFACE('',#318,4.6);
#79=CYLINDRICAL_SURFACE('',#330,8.);
#80=CYLINDRICAL_SURFACE('',#333,7.5);
#81=PLANE('',#314);
#82=PLANE('',#325);
#83=PLANE('',#328);
#84=FACE_OUTER_BOUND('',#163,.T.);
#85=FACE_OUTER_BOUND('',#174,.T.);
#86=SPHERICAL_SURFACE('',#310,4.8);
#87=SPHERICAL_SURFACE('',#315,4.6);
#88=SPHERICAL_SURFACE('',#323,4.59999999999999);
#89=ADVANCED_FACE('',(#117,#118),#111,.F.);
#90=ADVANCED_FACE('',(#119,#120),#86,.T.);
#91=ADVANCED_FACE('',(#121,#122),#112,.T.);
#92=ADVANCED_FACE('',(#84),#81,.F.);
#93=ADVANCED_FACE('',(#123,#124),#87,.T.);
#94=ADVANCED_FACE('',(#125,#126),#78,.T.);
#95=ADVANCED_FACE('',(#127,#128),#113,.T.);
#96=ADVANCED_FACE('',(#129,#130),#114,.T.);
#97=ADVANCED_FACE('',(#131,#132),#88,.T.);
#98=ADVANCED_FACE('',(#85),#82,.T.);
#99=ADVANCED_FACE('',(#133,#134),#83,.T.);
#100=ADVANCED_FACE('',(#135,#136),#79,.T.);
#101=ADVANCED_FACE('',(#137,#138),#115,.T.);
#102=ADVANCED_FACE('',(#139,#140),#80,.T.);
#103=ADVANCED_FACE('',(#141,#142),#116,.T.);
#104=ADVANCED_FACE('',(#143,#144),#32,.F.);
#105=ADVANCED_FACE('',(#145,#146),#33,.F.);
#106=ADVANCED_FACE('',(#147,#148),#34,.F.);
#107=ADVANCED_FACE('',(#149,#150),#35,.F.);
#108=ADVANCED_FACE('',(#151,#152),#36,.F.);
#109=ADVANCED_FACE('',(#153,#154),#37,.F.);
#110=ADVANCED_FACE('',(#155,#156),#38,.F.);
#111=CONICAL_SURFACE('',#308,3.71011363473321,59.9999999999997);
#112=CONICAL_SURFACE('',#312,4.21011363473321,59.9999999999988);
#113=CONICAL_SURFACE('',#320,4.6,44.9999999999997);
#114=CONICAL_SURFACE('',#322,4.322863963979,4.24999999999976);
#115=CONICAL_SURFACE('',#332,4.6,7.18632802107237);
#116=CONICAL_SURFACE('',#334,7.,45.);
#117=FACE_BOUND('',#157,.T.);
#118=FACE_BOUND('',#158,.T.);
#119=FACE_BOUND('',#159,.T.);
#120=FACE_BOUND('',#160,.T.);
#121=FACE_BOUND('',#161,.T.);
#122=FACE_BOUND('',#162,.T.);
#123=FACE_BOUND('',#164,.T.);
#124=FACE_BOUND('',#165,.T.);
#125=FACE_BOUND('',#166,.T.);
#126=FACE_BOUND('',#167,.T.);
#127=FACE_BOUND('',#168,.T.);
#128=FACE_BOUND('',#169,.T.);
#129=FACE_BOUND('',#170,.T.);
#130=FACE_BOUND('',#171,.T.);
#131=FACE_BOUND('',#172,.T.);
#132=FACE_BOUND('',#173,.T.);
#133=FACE_BOUND('',#175,.T.);
#134=FACE_BOUND('',#176,.T.);
#135=FACE_BOUND('',#177,.T.);
#136=FACE_BOUND('',#178,.T.);
#137=FACE_BOUND('',#179,.T.);
#138=FACE_BOUND('',#180,.T.);
#139=FACE_BOUND('',#181,.T.);
#140=FACE_BOUND('',#182,.T.);
#141=FACE_BOUND('',#183,.T.);
#142=FACE_BOUND('',#184,.T.);
#143=FACE_BOUND('',#185,.T.);
#144=FACE_BOUND('',#186,.T.);
#145=FACE_BOUND('',#187,.T.);
#146=FACE_BOUND('',#188,.T.);
#147=FACE_BOUND('',#189,.T.);
#148=FACE_BOUND('',#190,.T.);
#149=FACE_BOUND('',#191,.T.);
#150=FACE_BOUND('',#192,.T.);
#151=FACE_BOUND('',#193,.T.);
#152=FACE_BOUND('',#194,.T.);
#153=FACE_BOUND('',#195,.T.);
#154=FACE_BOUND('',#196,.T.);
#155=FACE_BOUND('',#197,.T.);
#156=FACE_BOUND('',#198,.T.);
#157=EDGE_LOOP('',(#199));
#158=EDGE_LOOP('',(#200));
#159=EDGE_LOOP('',(#201));
#160=EDGE_LOOP('',(#202));
#161=EDGE_LOOP('',(#203));
#162=EDGE_LOOP('',(#204));
#163=EDGE_LOOP('',(#205));
#164=EDGE_LOOP('',(#206));
#165=EDGE_LOOP('',(#207));
#166=EDGE_LOOP('',(#208));
#167=EDGE_LOOP('',(#209));
#168=EDGE_LOOP('',(#210));
#169=EDGE_LOOP('',(#211));
#170=EDGE_LOOP('',(#212));
#171=EDGE_LOOP('',(#213));
#172=EDGE_LOOP('',(#214));
#173=EDGE_LOOP('',(#215));
#174=EDGE_LOOP('',(#216));
#175=EDGE_LOOP('',(#217));
#176=EDGE_LOOP('',(#218));
#177=EDGE_LOOP('',(#219));
#178=EDGE_LOOP('',(#220));
#179=EDGE_LOOP('',(#221));
#180=EDGE_LOOP('',(#222));
#181=EDGE_LOOP('',(#223));
#182=EDGE_LOOP('',(#224));
#183=EDGE_LOOP('',(#225));
#184=EDGE_LOOP('',(#226));
#185=EDGE_LOOP('',(#227));
#186=EDGE_LOOP('',(#228));
#187=EDGE_LOOP('',(#229));
#188=EDGE_LOOP('',(#230));
#189=EDGE_LOOP('',(#231));
#190=EDGE_LOOP('',(#232));
#191=EDGE_LOOP('',(#233));
#192=EDGE_LOOP('',(#234));
#193=EDGE_LOOP('',(#235));
#194=EDGE_LOOP('',(#236));
#195=EDGE_LOOP('',(#237));
#196=EDGE_LOOP('',(#238));
#197=EDGE_LOOP('',(#239));
#198=EDGE_LOOP('',(#240));
#199=ORIENTED_EDGE('',*,*,#262,.T.);
#200=ORIENTED_EDGE('',*,*,#263,.F.);
#201=ORIENTED_EDGE('',*,*,#264,.T.);
#202=ORIENTED_EDGE('',*,*,#262,.F.);
#203=ORIENTED_EDGE('',*,*,#264,.F.);
#204=ORIENTED_EDGE('',*,*,#265,.T.);
#205=ORIENTED_EDGE('',*,*,#266,.T.);
#206=ORIENTED_EDGE('',*,*,#263,.T.);
#207=ORIENTED_EDGE('',*,*,#266,.F.);
#208=ORIENTED_EDGE('',*,*,#267,.F.);
#209=ORIENTED_EDGE('',*,*,#268,.F.);
#210=ORIENTED_EDGE('',*,*,#269,.F.);
#211=ORIENTED_EDGE('',*,*,#267,.T.);
#212=ORIENTED_EDGE('',*,*,#270,.F.);
#213=ORIENTED_EDGE('',*,*,#269,.T.);
#214=ORIENTED_EDGE('',*,*,#270,.T.);
#215=ORIENTED_EDGE('',*,*,#265,.F.);
#216=ORIENTED_EDGE('',*,*,#271,.T.);
#217=ORIENTED_EDGE('',*,*,#272,.T.);
#218=ORIENTED_EDGE('',*,*,#273,.F.);
#219=ORIENTED_EDGE('',*,*,#274,.T.);
#220=ORIENTED_EDGE('',*,*,#273,.T.);
#221=ORIENTED_EDGE('',*,*,#275,.F.);
#222=ORIENTED_EDGE('',*,*,#268,.T.);
#223=ORIENTED_EDGE('',*,*,#272,.F.);
#224=ORIENTED_EDGE('',*,*,#275,.T.);
#225=ORIENTED_EDGE('',*,*,#274,.F.);
#226=ORIENTED_EDGE('',*,*,#271,.F.);
#227=ORIENTED_EDGE('',*,*,#276,.T.);
#228=ORIENTED_EDGE('',*,*,#277,.F.);
#229=ORIENTED_EDGE('',*,*,#278,.T.);
#230=ORIENTED_EDGE('',*,*,#276,.F.);
#231=ORIENTED_EDGE('',*,*,#279,.T.);
#232=ORIENTED_EDGE('',*,*,#278,.F.);
#233=ORIENTED_EDGE('',*,*,#280,.T.);
#234=ORIENTED_EDGE('',*,*,#279,.F.);
#235=ORIENTED_EDGE('',*,*,#281,.T.);
#236=ORIENTED_EDGE('',*,*,#280,.F.);
#237=ORIENTED_EDGE('',*,*,#282,.T.);
#238=ORIENTED_EDGE('',*,*,#281,.F.);
#239=ORIENTED_EDGE('',*,*,#277,.T.);
#240=ORIENTED_EDGE('',*,*,#282,.F.);
#241=VERTEX_POINT('',#433);
#242=VERTEX_POINT('',#435);
#243=VERTEX_POINT('',#438);
#244=VERTEX_POINT('',#441);
#245=VERTEX_POINT('',#444);
#246=VERTEX_POINT('',#448);
#247=VERTEX_POINT('',#450);
#248=VERTEX_POINT('',#453);
#249=VERTEX_POINT('',#456);
#250=VERTEX_POINT('',#460);
#251=VERTEX_POINT('',#463);
#252=VERTEX_POINT('',#465);
#253=VERTEX_POINT('',#468);
#254=VERTEX_POINT('',#471);
#255=VERTEX_POINT('',#476);
#256=VERTEX_POINT('',#478);
#257=VERTEX_POINT('',#482);
#258=VERTEX_POINT('',#489);
#259=VERTEX_POINT('',#493);
#260=VERTEX_POINT('',#497);
#261=VERTEX_POINT('',#501);
#262=EDGE_CURVE('',#241,#241,#283,.T.);
#263=EDGE_CURVE('',#242,#242,#284,.T.);
#264=EDGE_CURVE('',#243,#243,#285,.T.);
#265=EDGE_CURVE('',#244,#244,#286,.T.);
#266=EDGE_CURVE('',#245,#245,#287,.T.);
#267=EDGE_CURVE('',#246,#246,#288,.T.);
#268=EDGE_CURVE('',#247,#247,#289,.T.);
#269=EDGE_CURVE('',#248,#248,#290,.T.);
#270=EDGE_CURVE('',#249,#249,#291,.T.);
#271=EDGE_CURVE('',#250,#250,#292,.T.);
#272=EDGE_CURVE('',#251,#251,#293,.T.);
#273=EDGE_CURVE('',#252,#252,#294,.T.);
#274=EDGE_CURVE('',#253,#253,#295,.T.);
#275=EDGE_CURVE('',#254,#254,#296,.T.);
#276=EDGE_CURVE('',#255,#255,#297,.T.);
#277=EDGE_CURVE('',#256,#256,#298,.T.);
#278=EDGE_CURVE('',#257,#257,#299,.T.);
#279=EDGE_CURVE('',#258,#258,#300,.T.);
#280=EDGE_CURVE('',#259,#259,#301,.T.);
#281=EDGE_CURVE('',#260,#260,#302,.T.);
#282=EDGE_CURVE('',#261,#261,#303,.T.);
#283=CIRCLE('',#306,3.88430768085781);
#284=CIRCLE('',#307,3.71011363473321);
#285=CIRCLE('',#309,4.38430768085781);
#286=CIRCLE('',#311,4.21011363473322);
#287=CIRCLE('',#313,1.34164078649988);
#288=CIRCLE('',#316,4.6);
#289=CIRCLE('',#317,4.6);
#290=CIRCLE('',#319,4.322863963979);
#291=CIRCLE('',#321,4.58735085145763);
#292=CIRCLE('',#324,7.);
#293=CIRCLE('',#326,7.5);
#294=CIRCLE('',#327,8.);
#295=CIRCLE('',#329,8.);
#296=CIRCLE('',#331,7.5);
#297=CIRCLE('',#335,0.049997039186556);
#298=CIRCLE('',#336,0.211712279148407);
#299=CIRCLE('',#337,4.95937946844968);
#300=CIRCLE('',#338,4.96111001933974);
#301=CIRCLE('',#339,4.68204497188976);
#302=CIRCLE('',#340,4.49597971125236);
#303=CIRCLE('',#341,0.969373826829936);
#304=CIRCLE('',#342,4.9);
#305=AXIS2_PLACEMENT_3D('',#431,#343,#344);
#306=AXIS2_PLACEMENT_3D('',#432,#345,#346);
#307=AXIS2_PLACEMENT_3D('',#434,#347,#348);
#308=AXIS2_PLACEMENT_3D('',#436,#349,#350);
#309=AXIS2_PLACEMENT_3D('',#437,#351,#352);
#310=AXIS2_PLACEMENT_3D('',#439,#353,#354);
#311=AXIS2_PLACEMENT_3D('',#440,#355,#356);
#312=AXIS2_PLACEMENT_3D('',#442,#357,#358);
#313=AXIS2_PLACEMENT_3D('',#443,#359,#360);
#314=AXIS2_PLACEMENT_3D('',#445,#361,#362);
#315=AXIS2_PLACEMENT_3D('',#446,#363,#364);
#316=AXIS2_PLACEMENT_3D('',#447,#365,#366);
#317=AXIS2_PLACEMENT_3D('',#449,#367,#368);
#318=AXIS2_PLACEMENT_3D('',#451,#369,#370);
#319=AXIS2_PLACEMENT_3D('',#452,#371,#372);
#320=AXIS2_PLACEMENT_3D('',#454,#373,#374);
#321=AXIS2_PLACEMENT_3D('',#455,#375,#376);
#322=AXIS2_PLACEMENT_3D('',#457,#377,#378);
#323=AXIS2_PLACEMENT_3D('',#458,#379,#380);
#324=AXIS2_PLACEMENT_3D('',#459,#381,#382);
#325=AXIS2_PLACEMENT_3D('',#461,#383,#384);
#326=AXIS2_PLACEMENT_3D('',#462,#385,#386);
#327=AXIS2_PLACEMENT_3D('',#464,#387,#388);
#328=AXIS2_PLACEMENT_3D('',#466,#389,#390);
#329=AXIS2_PLACEMENT_3D('',#467,#391,#392);
#330=AXIS2_PLACEMENT_3D('',#469,#393,#394);
#331=AXIS2_PLACEMENT_3D('',#470,#395,#396);
#332=AXIS2_PLACEMENT_3D('',#472,#397,#398);
#333=AXIS2_PLACEMENT_3D('',#473,#399,#400);
#334=AXIS2_PLACEMENT_3D('',#474,#401,#402);
#335=AXIS2_PLACEMENT_3D('',#475,#403,#404);
#336=AXIS2_PLACEMENT_3D('',#477,#405,#406);
#337=AXIS2_PLACEMENT_3D('',#481,#409,#410);
#338=AXIS2_PLACEMENT_3D('',#488,#412,#413);
#339=AXIS2_PLACEMENT_3D('',#492,#416,#417);
#340=AXIS2_PLACEMENT_3D('',#496,#420,#421);
#341=AXIS2_PLACEMENT_3D('',#500,#424,#425);
#342=AXIS2_PLACEMENT_3D('',#502,#426,#427);
#343=DIRECTION('',(0.,0.,1.));
#344=DIRECTION('',(1.,0.,0.));
#345=DIRECTION('',(3.6977854932235E-32,2.77555756156289E-17,-1.));
#346=DIRECTION('',(-0.833945580477384,-0.551846689581662,0.));
#347=DIRECTION('',(3.6977854932235E-32,2.77555756156289E-17,-1.));
#348=DIRECTION('',(-0.833945580477384,-0.551846689581662,0.));
#349=DIRECTION('',(3.6977854932235E-32,2.77555756156289E-17,-1.));
#350=DIRECTION('',(-0.833945580477384,-0.551846689581662,-2.39856554637573E-17));
#351=DIRECTION('',(3.6977854932235E-32,2.77555756156289E-17,-1.));
#352=DIRECTION('',(-0.833945580477384,-0.551846689581662,0.));
#353=DIRECTION('',(0.833945580477384,0.551846689581662,0.));
#354=DIRECTION('',(-0.551846689581662,0.833945580477384,0.));
#355=DIRECTION('',(3.6977854932235E-32,2.77555756156289E-17,-1.));
#356=DIRECTION('',(-0.833945580477384,-0.551846689581662,0.));
#357=DIRECTION('',(3.6977854932235E-32,2.77555756156289E-17,-1.));
#358=DIRECTION('',(-0.833945580477384,-0.551846689581662,-2.39787481910174E-17));
#359=DIRECTION('',(3.6977854932235E-32,2.77555756156289E-17,-1.));
#360=DIRECTION('',(-0.833945580477384,-0.551846689581662,0.));
#361=DIRECTION('',(-3.6977854932235E-32,-2.77555756156289E-17,1.));
#362=DIRECTION('',(0.833945580477384,0.551846689581662,1.38777878078145E-17));
#363=DIRECTION('',(0.833945580477384,0.551846689581662,0.));
#364=DIRECTION('',(-0.551846689581662,0.833945580477384,0.));
#365=DIRECTION('',(3.6977854932235E-32,2.77555756156289E-17,-1.));
#366=DIRECTION('',(-0.833945580477384,-0.551846689581662,0.));
#367=DIRECTION('',(-3.6977854932235E-32,-2.77555756156289E-17,1.));
#368=DIRECTION('',(0.833945580477384,0.551846689581662,0.));
#369=DIRECTION('',(3.6977854932235E-32,2.77555756156289E-17,-1.));
#370=DIRECTION('',(-0.833945580477384,-0.551846689581662,0.));
#371=DIRECTION('',(3.6977854932235E-32,2.77555756156289E-17,-1.));
#372=DIRECTION('',(-0.833945580477384,-0.551846689581662,0.));
#373=DIRECTION('',(-3.6977854932235E-32,-2.77555756156289E-17,1.));
#374=DIRECTION('',(0.833945580477384,0.551846689581662,-3.45356057331639E-17));
#375=DIRECTION('',(3.6977854932235E-32,2.77555756156289E-17,-1.));
#376=DIRECTION('',(-0.833945580477384,-0.551846689581662,0.));
#377=DIRECTION('',(3.6977854932235E-32,2.77555756156289E-17,-1.));
#378=DIRECTION('',(-0.833945580477384,-0.551846689581662,0.));
#379=DIRECTION('',(0.833945580477384,0.551846689581662,0.));
#380=DIRECTION('',(-0.551846689581662,0.833945580477384,0.));
#381=DIRECTION('',(-3.6977854932235E-32,-2.77555756156289E-17,1.));
#382=DIRECTION('',(0.833945580477384,0.551846689581662,0.));
#383=DIRECTION('',(-3.6977854932235E-32,-2.77555756156289E-17,1.));
#384=DIRECTION('',(0.833945580477384,0.551846689581662,1.38777878078145E-17));
#385=DIRECTION('',(-3.6977854932235E-32,-2.77555756156289E-17,1.));
#386=DIRECTION('',(0.833945580477384,0.551846689581662,1.53168225209182E-17));
#387=DIRECTION('',(-3.6977854932235E-32,-2.77555756156289E-17,1.));
#388=DIRECTION('',(0.833945580477384,0.551846689581662,1.53168225209176E-17));
#389=DIRECTION('',(3.6977854932235E-32,2.77555756156289E-17,-1.));
#390=DIRECTION('',(-0.833945580477384,-0.551846689581662,-1.53168225209183E-17));
#391=DIRECTION('',(3.6977854932235E-32,2.77555756156289E-17,-1.));
#392=DIRECTION('',(0.833945580477384,0.551846689581662,0.));
#393=DIRECTION('',(-3.6977854932235E-32,-2.77555756156289E-17,1.));
#394=DIRECTION('',(0.833945580477384,0.551846689581662,1.53168225209176E-17));
#395=DIRECTION('',(-3.6977854932235E-32,-2.77555756156289E-17,1.));
#396=DIRECTION('',(0.833945580477384,0.551846689581662,0.));
#397=DIRECTION('',(-3.6977854932235E-32,-2.77555756156289E-17,1.));
#398=DIRECTION('',(0.833945580477384,0.551846689581662,-3.45120978985339E-16));
#399=DIRECTION('',(-3.6977854932235E-32,-2.77555756156289E-17,1.));
#400=DIRECTION('',(0.833945580477384,0.551846689581662,0.));
#401=DIRECTION('',(3.6977854932235E-32,2.77555756156289E-17,-1.));
#402=DIRECTION('',(-0.833945580477384,-0.551846689581662,-4.13439557333102E-17));
#403=DIRECTION('',(0.,0.,-1.));
#404=DIRECTION('',(-1.,0.,0.));
#405=DIRECTION('',(0.,0.,-1.));
#406=DIRECTION('',(-1.,0.,0.));
#407=DIRECTION('',(0.234337884910338,0.168812980926497,-0.957385989643915));
#408=DIRECTION('',(0.,0.,-1.));
#409=DIRECTION('',(0.,0.,-1.));
#410=DIRECTION('',(-1.,0.,0.));
#411=DIRECTION('',(0.,0.,-1.));
#412=DIRECTION('',(0.,0.,-1.));
#413=DIRECTION('',(-1.,0.,0.));
#414=DIRECTION('',(-0.0445364786391541,-0.173475876784472,0.983830586150016));
#415=DIRECTION('',(0.,0.,-1.));
#416=DIRECTION('',(0.,0.,-1.));
#417=DIRECTION('',(-1.,0.,0.));
#418=DIRECTION('',(-0.793911838882121,-0.105583802847549,0.598795501535423));
#419=DIRECTION('',(0.,0.,-1.));
#420=DIRECTION('',(0.,0.,-1.));
#421=DIRECTION('',(-1.,0.,0.));
#422=DIRECTION('',(-0.976494283726806,-0.0374287011219945,0.212268712205053));
#423=DIRECTION('',(0.,0.,-1.));
#424=DIRECTION('',(0.,0.,-1.));
#425=DIRECTION('',(-1.,0.,0.));
#426=DIRECTION('',(-5.55111512312578E-17,-0.984807753012208,-0.17364817766693));
#427=DIRECTION('',(0.993675355705853,0.0194991420406311,-0.110585129753175));
#428=DIRECTION('',(0.,0.,-1.));
#429=DIRECTION('',(-0.112291083630212,0.17254991471086,-0.978579194276287));
#430=DIRECTION('',(0.,0.,-1.));
#431=CARTESIAN_POINT('',(0.,0.,0.));
#432=CARTESIAN_POINT('',(-2.77555756156289E-14,-7.31565415884594E-14,-47.8191998323518));
#433=CARTESIAN_POINT('',(-3.23930122366575,-2.14354233499808,-47.8191998323518));
#434=CARTESIAN_POINT('',(-2.77555756156289E-14,-7.31565415884594E-14,-47.7186288529305));
#435=CARTESIAN_POINT('',(-3.09403286875467,-2.04741392729938,-47.7186288529305));
#436=CARTESIAN_POINT('',(-2.77555756156289E-14,-7.31565415884594E-14,-47.7186288529305));
#437=CARTESIAN_POINT('',(-2.77555756156289E-14,-7.31836466427715E-14,-46.9531744285673));
#438=CARTESIAN_POINT('',(-3.65627401390445,-2.41946567978891,-46.9531744285673));
#439=CARTESIAN_POINT('',(-2.6386770372866E-14,-7.52978408791183E-14,-44.9992434780035));
#440=CARTESIAN_POINT('',(-2.77555756156289E-14,-7.31836466427715E-14,-46.8526034491461));
#441=CARTESIAN_POINT('',(-3.51100565899337,-2.32333727209022,-46.8526034491461));
#442=CARTESIAN_POINT('',(-2.77555756156289E-14,-7.31836466427715E-14,-46.8526034491461));
#443=CARTESIAN_POINT('',(-2.77555756156289E-14,-7.31023314798351E-14,-49.3992434780035));
#444=CARTESIAN_POINT('',(-1.1188554044898,-0.740380026637768,-49.3992434780035));
#445=CARTESIAN_POINT('',(-0.740380026637723,1.1188554044897,-49.3992434780035));
#446=CARTESIAN_POINT('',(-2.72405795836983E-14,-7.40239033264478E-14,-44.9992434780035));
#447=CARTESIAN_POINT('',(-2.77555756156289E-14,-7.33462769686444E-14,-40.8221074419825));
#448=CARTESIAN_POINT('',(-3.83614967019599,-2.53849477207572,-40.8221074419825));
#449=CARTESIAN_POINT('',(-1.09910995235718E-14,-6.20163642661709E-14,-30.0000000000001));
#450=CARTESIAN_POINT('',(3.83614967019596,2.53849477207558,-30.0000000000001));
#451=CARTESIAN_POINT('',(-2.77555756156289E-14,-7.36444325660779E-14,-30.0000000000001));
#452=CARTESIAN_POINT('',(-2.77555756156289E-14,-7.33462769686444E-14,-41.0992434780035));
#453=CARTESIAN_POINT('',(-3.60503329776526,-2.38555816803374,-41.0992434780035));
#454=CARTESIAN_POINT('',(-2.77555756156289E-14,-7.33462769686444E-14,-40.8221074419825));
#455=CARTESIAN_POINT('',(-2.77555756156289E-14,-7.32378567513958E-14,-44.6583444231047));
#456=CARTESIAN_POINT('',(-3.82560096867228,-2.53151438132658,-44.6583444231047));
#457=CARTESIAN_POINT('',(-2.77555756156289E-14,-7.33462769686444E-14,-41.0992434780035));
#458=CARTESIAN_POINT('',(-2.72405795836983E-14,-7.40239033264478E-14,-44.9992434780035));
#459=CARTESIAN_POINT('',(-1.11537298494446E-14,-6.65429083362978E-14,110.));
#460=CARTESIAN_POINT('',(5.83761906334168,3.86292682707157,110.));
#461=CARTESIAN_POINT('',(-1.11537298494446E-14,-6.65429083362978E-14,110.));
#462=CARTESIAN_POINT('',(-1.13299127024735E-14,-6.32089866559049E-14,-9.71445146547012E-14));
#463=CARTESIAN_POINT('',(6.25459185358037,4.1388501718624,-9.70296384857943E-14));
#464=CARTESIAN_POINT('',(-1.11537298494446E-14,-6.34800371990263E-14,-9.71445146547012E-14));
#465=CARTESIAN_POINT('',(6.67156464381906,4.41477351665323,-9.70219800745339E-14));
#466=CARTESIAN_POINT('',(-1.11537298494446E-14,-6.34800371990263E-14,-9.71445146547012E-14));
#467=CARTESIAN_POINT('',(-1.11537298494446E-14,-6.65158032819857E-14,109.));
#468=CARTESIAN_POINT('',(6.67156464381906,4.41477351665323,109.));
#469=CARTESIAN_POINT('',(-1.11537298494446E-14,-6.34800371990263E-14,-9.71445146547012E-14));
#470=CARTESIAN_POINT('',(-1.13299127024735E-14,-6.30192512757199E-14,-7.00000000000009));
#471=CARTESIAN_POINT('',(6.25459185358037,4.1388501718624,-7.00000000000009));
#472=CARTESIAN_POINT('',(-1.09910995235718E-14,-6.20163642661709E-14,-30.0000000000001));
#473=CARTESIAN_POINT('',(-1.13299127024735E-14,-6.30192512757199E-14,-7.00000000000009));
#474=CARTESIAN_POINT('',(-1.11537298494446E-14,-6.65429083362978E-14,110.));
#475=CARTESIAN_POINT('',(0.,0.,-49.9995205262819));
#476=CARTESIAN_POINT('',(-0.049997039186556,0.,-49.9995205262819));
#477=CARTESIAN_POINT('',(0.,0.,-49.1698411691408));
#478=CARTESIAN_POINT('',(-0.211712279148407,0.,-49.1698411691408));
#479=CARTESIAN_POINT('',(-0.153082315073914,-0.146246004915772,-49.1698411691408));
#480=CARTESIAN_POINT('',(0.,0.,0.));
#481=CARTESIAN_POINT('',(0.,0.,-44.9594872102907));
#482=CARTESIAN_POINT('',(-4.95937946844968,0.,-44.9594872102907));
#483=CARTESIAN_POINT('',(0.0499970153208519,4.88510850617978E-5,-49.9995205262819));
#484=CARTESIAN_POINT('',(2.99131857259154,-0.0068335106281918,-49.9604887134215));
#485=CARTESIAN_POINT('',(5.01012213412157,-0.378350348770154,-47.8535120235851));
#486=CARTESIAN_POINT('',(4.87911413732526,-0.888645006193729,-44.9594872102907));
#487=CARTESIAN_POINT('',(0.,0.,0.));
#488=CARTESIAN_POINT('',(0.,0.,-40.9569778886443));
#489=CARTESIAN_POINT('',(-4.96111001933974,0.,-40.9569778886443));
#490=CARTESIAN_POINT('',(4.87911413732526,-0.888645006193733,-44.9594872102907));
#491=CARTESIAN_POINT('',(0.,0.,0.));
#492=CARTESIAN_POINT('',(0.,0.,-40.7224762848872));
#493=CARTESIAN_POINT('',(-4.68204497188976,0.,-40.7224762848872));
#494=CARTESIAN_POINT('',(4.6979267729396,-1.59439539013713,-40.9569778886443));
#495=CARTESIAN_POINT('',(0.,0.,0.));
#496=CARTESIAN_POINT('',(0.,0.,-40.6785249365687));
#497=CARTESIAN_POINT('',(-4.49597971125236,0.,-40.6785249365687));
#498=CARTESIAN_POINT('',(4.38701328247043,-1.63574434989891,-40.7224762848872));
#499=CARTESIAN_POINT('',(0.,0.,0.));
#500=CARTESIAN_POINT('',(0.,0.,-44.8552033946341));
#501=CARTESIAN_POINT('',(-0.969373826829936,0.,-44.8552033946341));
#502=CARTESIAN_POINT('',(5.21102773730827,-0.811487260546122,-45.3970705304247));
#503=CARTESIAN_POINT('',(0.,0.,0.));
#504=CARTESIAN_POINT('',(0.3420184943496,-0.907033056545219,-44.8552033946341));
#505=CARTESIAN_POINT('',(0.,0.,0.));
#506=MECHANICAL_DESIGN_GEOMETRIC_PRESENTATION_REPRESENTATION('',(#58,#59),
#507);
#507=(
GEOMETRIC_REPRESENTATION_CONTEXT(3)
GLOBAL_UNCERTAINTY_ASSIGNED_CONTEXT((#508))
GLOBAL_UNIT_ASSIGNED_CONTEXT((#514,#510,#509))
REPRESENTATION_CONTEXT('10L2R050A16-SZP10_115008934ndi000_00-SIM',
'TOP_LEVEL_ASSEMBLY_PART')
);
#508=UNCERTAINTY_MEASURE_WITH_UNIT(LENGTH_MEASURE(2.E-5),#514,
'DISTANCE_ACCURACY_VALUE','Maximum Tolerance applied to model');
#509=(
NAMED_UNIT(*)
SI_UNIT($,.STERADIAN.)
SOLID_ANGLE_UNIT()
);
#510=(
CONVERSION_BASED_UNIT('DEGREE',#512)
NAMED_UNIT(#511)
PLANE_ANGLE_UNIT()
);
#511=DIMENSIONAL_EXPONENTS(0.,0.,0.,0.,0.,0.,0.);
#512=PLANE_ANGLE_MEASURE_WITH_UNIT(PLANE_ANGLE_MEASURE(0.0174532925),#513);
#513=(
NAMED_UNIT(*)
PLANE_ANGLE_UNIT()
SI_UNIT($,.RADIAN.)
);
#514=(
LENGTH_UNIT()
NAMED_UNIT(*)
SI_UNIT(.MILLI.,.METRE.)
);
ENDSEC;
END-ISO-10303-21;
