ISO-10303-21;
HEADER;
/* Generated by software containing ST-Developer
 * from STEP Tools, Inc. (www.steptools.com) 
 */
/* OPTION: using custom schema-name function */

FILE_DESCRIPTION(
/* description */ (''),
/* implementation_level */ '2;1');

FILE_NAME(
/* name */ '10K2R030A12-SRC10-A.stp',
/* time_stamp */ '2020-02-07T07:25:12+01:00',
/* author */ (''),
/* organization */ (''),
/* preprocessor_version */ 'ST-DEVELOPER v16.7',
/* originating_system */ 'SIEMENS PLM Software NX 12.0',
/* authorisation */ '');

FILE_SCHEMA (('AUTOMOTIVE_DESIGN { 1 0 10303 214 3 1 1 1 }'));
ENDSEC;

DATA;
#10=PROPERTY_DEFINITION_REPRESENTATION(#14,#12);
#11=PROPERTY_DEFINITION_REPRESENTATION(#15,#13);
#12=REPRESENTATION('',(#16),#347);
#13=REPRESENTATION('',(#17),#347);
#14=PROPERTY_DEFINITION('pmi validation property','',#21);
#15=PROPERTY_DEFINITION('pmi validation property','',#21);
#16=VALUE_REPRESENTATION_ITEM('number of annotations',COUNT_MEASURE(0.));
#17=VALUE_REPRESENTATION_ITEM('number of views',COUNT_MEASURE(0.));
#18=SHAPE_REPRESENTATION_RELATIONSHIP('None',
'relationship between pp07321CEE9Ebekb-None and pp07321CEE9Ebekb-None',
#30,#19);
#19=ADVANCED_BREP_SHAPE_REPRESENTATION('pp07321CEE9Ebekb-None',(#71,#72),
#347);
#20=SHAPE_DEFINITION_REPRESENTATION(#21,#30);
#21=PRODUCT_DEFINITION_SHAPE('','',#22);
#22=PRODUCT_DEFINITION(' ','',#24,#23);
#23=PRODUCT_DEFINITION_CONTEXT('part definition',#29,'design');
#24=PRODUCT_DEFINITION_FORMATION_WITH_SPECIFIED_SOURCE(' ',' ',#26,
 .NOT_KNOWN.);
#25=PRODUCT_RELATED_PRODUCT_CATEGORY('part','',(#26));
#26=PRODUCT('pp07321CEE9Ebekb','pp07321CEE9Ebekb',' ',(#27));
#27=PRODUCT_CONTEXT(' ',#29,'mechanical');
#28=APPLICATION_PROTOCOL_DEFINITION('international standard',
'automotive_design',2010,#29);
#29=APPLICATION_CONTEXT(
'core data for automotive mechanical design processes');
#30=SHAPE_REPRESENTATION('pp07321CEE9Ebekb-None',(#203),#347);
#31=LINE('',#322,#33);
#32=LINE('',#344,#34);
#33=VECTOR('',#254,0.256788164519796);
#34=VECTOR('',#266,6.05492853285517);
#35=SURFACE_OF_REVOLUTION('',#47,#41);
#36=SURFACE_OF_REVOLUTION('',#48,#42);
#37=SURFACE_OF_REVOLUTION('',#31,#43);
#38=SURFACE_OF_REVOLUTION('',#49,#44);
#39=SURFACE_OF_REVOLUTION('',#50,#45);
#40=SURFACE_OF_REVOLUTION('',#32,#46);
#41=AXIS1_PLACEMENT('',#303,#250);
#42=AXIS1_PLACEMENT('',#313,#253);
#43=AXIS1_PLACEMENT('',#323,#255);
#44=AXIS1_PLACEMENT('',#336,#262);
#45=AXIS1_PLACEMENT('',#343,#265);
#46=AXIS1_PLACEMENT('',#345,#267);
#47=B_SPLINE_CURVE_WITH_KNOTS('',3,(#296,#297,#298,#299,#300,#301,#302),
 .UNSPECIFIED.,.F.,.F.,(4,3,4),(0.,0.0131475904706677,1.),.UNSPECIFIED.);
#48=B_SPLINE_CURVE_WITH_KNOTS('',3,(#306,#307,#308,#309,#310,#311,#312),
 .UNSPECIFIED.,.F.,.F.,(4,3,4),(0.,0.988687597775569,1.),.UNSPECIFIED.);
#49=B_SPLINE_CURVE_WITH_KNOTS('',3,(#329,#330,#331,#332,#333,#334,#335),
 .UNSPECIFIED.,.F.,.F.,(4,1,1,1,4),(0.,0.25,0.5,0.75,1.),.UNSPECIFIED.);
#50=B_SPLINE_CURVE_WITH_KNOTS('',3,(#339,#340,#341,#342),.UNSPECIFIED.,
 .F.,.F.,(4,4),(0.,1.),.UNSPECIFIED.);
#51=(
BOUNDED_CURVE()
B_SPLINE_CURVE(3,(#288,#289,#290,#291,#292,#293,#294),.UNSPECIFIED.,.T.,
 .F.)
B_SPLINE_CURVE_WITH_KNOTS((1,3,3,3,1),(-0.5,0.,0.5,1.,1.5),
 .UNSPECIFIED.)
CURVE()
GEOMETRIC_REPRESENTATION_ITEM()
RATIONAL_B_SPLINE_CURVE((1.,0.333333333333333,0.333333333333333,1.,0.333333333333333,
0.333333333333333,1.))
REPRESENTATION_ITEM('')
);
#52=(
BOUNDED_CURVE()
B_SPLINE_CURVE(3,(#314,#315,#316,#317,#318,#319,#320),.UNSPECIFIED.,.T.,
 .F.)
B_SPLINE_CURVE_WITH_KNOTS((1,3,3,3,1),(-0.5,0.,0.5,1.,1.5),
 .UNSPECIFIED.)
CURVE()
GEOMETRIC_REPRESENTATION_ITEM()
RATIONAL_B_SPLINE_CURVE((1.,0.333333333333333,0.333333333333333,1.,0.333333333333333,
0.333333333333333,1.))
REPRESENTATION_ITEM('')
);
#53=PRESENTATION_LAYER_ASSIGNMENT('14','Layer 14',(#71));
#54=PRESENTATION_LAYER_ASSIGNMENT('96','Layer 96',(#72));
#55=STYLED_ITEM('',(#57),#71);
#56=STYLED_ITEM('',(#58),#72);
#57=PRESENTATION_STYLE_ASSIGNMENT((#59));
#58=PRESENTATION_STYLE_ASSIGNMENT((#60));
#59=SURFACE_STYLE_USAGE(.BOTH.,#61);
#60=SURFACE_STYLE_USAGE(.BOTH.,#62);
#61=SURFACE_SIDE_STYLE('',(#63));
#62=SURFACE_SIDE_STYLE('',(#64));
#63=SURFACE_STYLE_FILL_AREA(#65);
#64=SURFACE_STYLE_FILL_AREA(#66);
#65=FILL_AREA_STYLE('',(#67));
#66=FILL_AREA_STYLE('',(#68));
#67=FILL_AREA_STYLE_COLOUR('',#69);
#68=FILL_AREA_STYLE_COLOUR('',#70);
#69=COLOUR_RGB('Silver Gray',0.6,0.6,0.6);
#70=COLOUR_RGB('Light Gray',0.8,0.8,0.8);
#71=MANIFOLD_SOLID_BREP('',#73);
#72=MANIFOLD_SOLID_BREP('',#74);
#73=CLOSED_SHELL('',(#100,#101,#102,#103,#104,#105));
#74=CLOSED_SHELL('',(#106,#107,#108,#109,#110,#111,#112,#113));
#75=CONICAL_SURFACE('',#214,5.,45.);
#76=TOROIDAL_SURFACE('',#213,8.5,4.);
#77=SPHERICAL_SURFACE('',#212,4.5);
#78=CYLINDRICAL_SURFACE('',#208,6.);
#79=CYLINDRICAL_SURFACE('',#211,4.5);
#80=FACE_BOUND('',#122,.T.);
#81=FACE_BOUND('',#123,.T.);
#82=FACE_BOUND('',#124,.T.);
#83=FACE_BOUND('',#125,.T.);
#84=FACE_BOUND('',#127,.T.);
#85=FACE_BOUND('',#128,.T.);
#86=FACE_BOUND('',#129,.T.);
#87=FACE_BOUND('',#130,.T.);
#88=FACE_BOUND('',#132,.T.);
#89=FACE_BOUND('',#133,.T.);
#90=FACE_BOUND('',#134,.T.);
#91=FACE_BOUND('',#135,.T.);
#92=FACE_BOUND('',#136,.T.);
#93=FACE_BOUND('',#137,.T.);
#94=FACE_BOUND('',#139,.T.);
#95=FACE_BOUND('',#140,.T.);
#96=FACE_BOUND('',#141,.T.);
#97=FACE_BOUND('',#142,.T.);
#98=FACE_BOUND('',#143,.T.);
#99=FACE_BOUND('',#144,.T.);
#100=ADVANCED_FACE('',(#117),#114,.F.);
#101=ADVANCED_FACE('',(#80,#81),#78,.T.);
#102=ADVANCED_FACE('',(#82,#83),#79,.T.);
#103=ADVANCED_FACE('',(#118),#77,.T.);
#104=ADVANCED_FACE('',(#84,#85),#76,.F.);
#105=ADVANCED_FACE('',(#86,#87),#75,.T.);
#106=ADVANCED_FACE('',(#119),#115,.F.);
#107=ADVANCED_FACE('',(#88,#89),#35,.F.);
#108=ADVANCED_FACE('',(#90,#91),#36,.F.);
#109=ADVANCED_FACE('',(#92,#93),#37,.F.);
#110=ADVANCED_FACE('',(#120),#116,.T.);
#111=ADVANCED_FACE('',(#94,#95),#38,.F.);
#112=ADVANCED_FACE('',(#96,#97),#39,.F.);
#113=ADVANCED_FACE('',(#98,#99),#40,.F.);
#114=PLANE('',#205);
#115=PLANE('',#216);
#116=PLANE('',#219);
#117=FACE_OUTER_BOUND('',#121,.T.);
#118=FACE_OUTER_BOUND('',#126,.T.);
#119=FACE_OUTER_BOUND('',#131,.T.);
#120=FACE_OUTER_BOUND('',#138,.T.);
#121=EDGE_LOOP('',(#145));
#122=EDGE_LOOP('',(#146));
#123=EDGE_LOOP('',(#147));
#124=EDGE_LOOP('',(#148));
#125=EDGE_LOOP('',(#149));
#126=EDGE_LOOP('',(#150));
#127=EDGE_LOOP('',(#151));
#128=EDGE_LOOP('',(#152));
#129=EDGE_LOOP('',(#153));
#130=EDGE_LOOP('',(#154));
#131=EDGE_LOOP('',(#155));
#132=EDGE_LOOP('',(#156));
#133=EDGE_LOOP('',(#157));
#134=EDGE_LOOP('',(#158));
#135=EDGE_LOOP('',(#159));
#136=EDGE_LOOP('',(#160));
#137=EDGE_LOOP('',(#161));
#138=EDGE_LOOP('',(#162));
#139=EDGE_LOOP('',(#163));
#140=EDGE_LOOP('',(#164));
#141=EDGE_LOOP('',(#165));
#142=EDGE_LOOP('',(#166));
#143=EDGE_LOOP('',(#167));
#144=EDGE_LOOP('',(#168));
#145=ORIENTED_EDGE('',*,*,#181,.T.);
#146=ORIENTED_EDGE('',*,*,#182,.T.);
#147=ORIENTED_EDGE('',*,*,#183,.T.);
#148=ORIENTED_EDGE('',*,*,#184,.F.);
#149=ORIENTED_EDGE('',*,*,#185,.T.);
#150=ORIENTED_EDGE('',*,*,#185,.F.);
#151=ORIENTED_EDGE('',*,*,#184,.T.);
#152=ORIENTED_EDGE('',*,*,#183,.F.);
#153=ORIENTED_EDGE('',*,*,#182,.F.);
#154=ORIENTED_EDGE('',*,*,#181,.F.);
#155=ORIENTED_EDGE('',*,*,#186,.F.);
#156=ORIENTED_EDGE('',*,*,#186,.T.);
#157=ORIENTED_EDGE('',*,*,#187,.F.);
#158=ORIENTED_EDGE('',*,*,#187,.T.);
#159=ORIENTED_EDGE('',*,*,#188,.F.);
#160=ORIENTED_EDGE('',*,*,#188,.T.);
#161=ORIENTED_EDGE('',*,*,#189,.F.);
#162=ORIENTED_EDGE('',*,*,#190,.T.);
#163=ORIENTED_EDGE('',*,*,#189,.T.);
#164=ORIENTED_EDGE('',*,*,#191,.F.);
#165=ORIENTED_EDGE('',*,*,#191,.T.);
#166=ORIENTED_EDGE('',*,*,#192,.F.);
#167=ORIENTED_EDGE('',*,*,#192,.T.);
#168=ORIENTED_EDGE('',*,*,#190,.F.);
#169=VERTEX_POINT('',#270);
#170=VERTEX_POINT('',#273);
#171=VERTEX_POINT('',#275);
#172=VERTEX_POINT('',#278);
#173=VERTEX_POINT('',#280);
#174=VERTEX_POINT('',#286);
#175=VERTEX_POINT('',#295);
#176=VERTEX_POINT('',#305);
#177=VERTEX_POINT('',#321);
#178=VERTEX_POINT('',#325);
#179=VERTEX_POINT('',#328);
#180=VERTEX_POINT('',#338);
#181=EDGE_CURVE('',#169,#169,#193,.T.);
#182=EDGE_CURVE('',#170,#170,#194,.T.);
#183=EDGE_CURVE('',#171,#171,#195,.T.);
#184=EDGE_CURVE('',#172,#172,#196,.T.);
#185=EDGE_CURVE('',#173,#173,#197,.T.);
#186=EDGE_CURVE('',#174,#174,#198,.T.);
#187=EDGE_CURVE('',#175,#175,#51,.T.);
#188=EDGE_CURVE('',#176,#176,#199,.T.);
#189=EDGE_CURVE('',#177,#177,#52,.T.);
#190=EDGE_CURVE('',#178,#178,#200,.T.);
#191=EDGE_CURVE('',#179,#179,#201,.T.);
#192=EDGE_CURVE('',#180,#180,#202,.T.);
#193=CIRCLE('',#204,5.);
#194=CIRCLE('',#206,6.);
#195=CIRCLE('',#207,6.);
#196=CIRCLE('',#209,4.5);
#197=CIRCLE('',#210,4.5);
#198=CIRCLE('',#215,0.694767828313176);
#199=CIRCLE('',#217,2.31060076251869);
#200=CIRCLE('',#218,4.68743078751562);
#201=CIRCLE('',#220,4.99998478495308);
#202=CIRCLE('',#221,4.99356102674761);
#203=AXIS2_PLACEMENT_3D('',#268,#222,#223);
#204=AXIS2_PLACEMENT_3D('',#269,#224,#225);
#205=AXIS2_PLACEMENT_3D('',#271,#226,#227);
#206=AXIS2_PLACEMENT_3D('',#272,#228,#229);
#207=AXIS2_PLACEMENT_3D('',#274,#230,#231);
#208=AXIS2_PLACEMENT_3D('',#276,#232,#233);
#209=AXIS2_PLACEMENT_3D('',#277,#234,#235);
#210=AXIS2_PLACEMENT_3D('',#279,#236,#237);
#211=AXIS2_PLACEMENT_3D('',#281,#238,#239);
#212=AXIS2_PLACEMENT_3D('',#282,#240,#241);
#213=AXIS2_PLACEMENT_3D('',#283,#242,#243);
#214=AXIS2_PLACEMENT_3D('',#284,#244,#245);
#215=AXIS2_PLACEMENT_3D('',#285,#246,#247);
#216=AXIS2_PLACEMENT_3D('',#287,#248,#249);
#217=AXIS2_PLACEMENT_3D('',#304,#251,#252);
#218=AXIS2_PLACEMENT_3D('',#324,#256,#257);
#219=AXIS2_PLACEMENT_3D('',#326,#258,#259);
#220=AXIS2_PLACEMENT_3D('',#327,#260,#261);
#221=AXIS2_PLACEMENT_3D('',#337,#263,#264);
#222=DIRECTION('',(0.,0.,1.));
#223=DIRECTION('',(1.,0.,0.));
#224=DIRECTION('',(1.,0.,0.));
#225=DIRECTION('',(0.,0.,1.));
#226=DIRECTION('',(-1.,0.,0.));
#227=DIRECTION('',(0.,0.,1.));
#228=DIRECTION('',(-1.,0.,0.));
#229=DIRECTION('',(0.,0.,1.));
#230=DIRECTION('',(1.,0.,0.));
#231=DIRECTION('',(0.,0.,-1.));
#232=DIRECTION('',(1.,0.,0.));
#233=DIRECTION('',(0.,0.,-1.));
#234=DIRECTION('',(1.,0.,0.));
#235=DIRECTION('',(0.,0.,-1.));
#236=DIRECTION('',(1.,0.,0.));
#237=DIRECTION('',(0.,0.,-1.));
#238=DIRECTION('',(1.,0.,0.));
#239=DIRECTION('',(0.,0.,-1.));
#240=DIRECTION('',(0.,0.,1.));
#241=DIRECTION('',(1.,0.,0.));
#242=DIRECTION('',(1.,0.,0.));
#243=DIRECTION('',(0.,0.,-1.));
#244=DIRECTION('',(-1.,0.,0.));
#245=DIRECTION('',(0.,0.,1.));
#246=DIRECTION('',(1.,5.55111512312578E-17,5.55111512312578E-17));
#247=DIRECTION('',(5.85196662990553E-17,0.,-1.));
#248=DIRECTION('',(1.,5.55111512312578E-17,5.55111512312578E-17));
#249=DIRECTION('',(5.55111512312578E-17,0.,-1.));
#250=DIRECTION('',(1.,5.55111512312578E-17,5.55111512312578E-17));
#251=DIRECTION('',(1.,5.55111512312578E-17,5.55111512312578E-17));
#252=DIRECTION('',(4.69229557123343E-17,0.,-1.));
#253=DIRECTION('',(1.,5.55111512312578E-17,5.55111512312578E-17));
#254=DIRECTION('',(-0.448804467051219,0.893629985147584,0.));
#255=DIRECTION('',(1.,5.55111512312578E-17,5.55111512312578E-17));
#256=DIRECTION('',(1.,5.55111512312578E-17,5.55111512312578E-17));
#257=DIRECTION('',(0.,0.,-1.));
#258=DIRECTION('',(1.,5.55111512312578E-17,5.55111512312578E-17));
#259=DIRECTION('',(5.55111512312578E-17,0.,-1.));
#260=DIRECTION('',(1.,5.55111512312578E-17,5.55111512312578E-17));
#261=DIRECTION('',(0.,0.,-1.));
#262=DIRECTION('',(1.,5.55111512312578E-17,5.55111512312578E-17));
#263=DIRECTION('',(1.,5.55111512312578E-17,5.55111512312578E-17));
#264=DIRECTION('',(0.,0.,-1.));
#265=DIRECTION('',(1.,5.55111512312578E-17,5.55111512312578E-17));
#266=DIRECTION('',(-0.998629534754572,-0.0523359562429765,0.));
#267=DIRECTION('',(1.,5.55111512312578E-17,5.55111512312578E-17));
#268=CARTESIAN_POINT('',(0.,0.,0.));
#269=CARTESIAN_POINT('',(130.,0.,0.));
#270=CARTESIAN_POINT('',(130.,0.,5.));
#271=CARTESIAN_POINT('',(130.,-6.,0.));
#272=CARTESIAN_POINT('',(129.,0.,0.));
#273=CARTESIAN_POINT('',(129.,0.,6.));
#274=CARTESIAN_POINT('',(30.,0.,0.));
#275=CARTESIAN_POINT('',(30.,0.,-6.));
#276=CARTESIAN_POINT('',(0.,0.,0.));
#277=CARTESIAN_POINT('',(26.8775010008008,0.,0.));
#278=CARTESIAN_POINT('',(26.8775010008008,0.,-4.5));
#279=CARTESIAN_POINT('',(5.,0.,0.));
#280=CARTESIAN_POINT('',(5.,0.,-4.5));
#281=CARTESIAN_POINT('',(0.,0.,0.));
#282=CARTESIAN_POINT('',(5.,0.,0.));
#283=CARTESIAN_POINT('',(26.8775010008008,0.,0.));
#284=CARTESIAN_POINT('',(130.,0.,0.));
#285=CARTESIAN_POINT('',(0.050616511193511,2.68702069767364E-14,-1.24715384936301E-13));
#286=CARTESIAN_POINT('',(0.050616511193511,2.68702069767364E-14,-0.694767828313301));
#287=CARTESIAN_POINT('',(0.050616511193511,2.68702069767364E-14,-1.24715384936301E-13));
#288=CARTESIAN_POINT('',(0.2501403346533,-1.2093912573033,0.801095677390896));
#289=CARTESIAN_POINT('',(0.2501403346533,-2.81158261208534,-1.61768683721575));
#290=CARTESIAN_POINT('',(0.2501403346533,-0.392800097478689,-3.2198781919978));
#291=CARTESIAN_POINT('',(0.2501403346533,1.20939125730335,-0.801095677391145));
#292=CARTESIAN_POINT('',(0.2501403346533,2.81158261208539,1.61768683721551));
#293=CARTESIAN_POINT('',(0.2501403346533,0.392800097478743,3.21987819199755));
#294=CARTESIAN_POINT('',(0.2501403346533,-1.2093912573033,0.801095677390896));
#295=CARTESIAN_POINT('',(0.250145665767735,-1.20938964432645,0.801094608961827));
#296=CARTESIAN_POINT('',(0.25015099688217,-1.20938872116814,0.801092499132451));
#297=CARTESIAN_POINT('',(0.24899479969896,-1.20661890888569,0.799399176813994));
#298=CARTESIAN_POINT('',(0.24783860251574,-1.20384909660324,0.797705854495537));
#299=CARTESIAN_POINT('',(0.24668240533252,-1.2010792843208,0.796012532177079));
#300=CARTESIAN_POINT('',(0.15989874876088,-0.993178381796209,0.668912497094059));
#301=CARTESIAN_POINT('',(0.0945434507182499,-0.779235666274047,0.540987787065749));
#302=CARTESIAN_POINT('',(0.050616511193511,-0.55925113776759,0.412238402098265));
#303=CARTESIAN_POINT('',(5.00000000000007,2.71449529520851E-14,-1.24440638960952E-13));
#304=CARTESIAN_POINT('',(0.558485560235856,2.68983993723235E-14,-1.24687192540714E-13));
#305=CARTESIAN_POINT('',(0.558485560235856,2.68983993723235E-14,-2.31060076251881));
#306=CARTESIAN_POINT('',(0.55848556023552,-1.94328996388746,1.2499999999996));
#307=CARTESIAN_POINT('',(0.457167235808881,-1.70131458557935,1.10203130634263));
#308=CARTESIAN_POINT('',(0.355554874894201,-1.4594468901966,0.954087837852503));
#309=CARTESIAN_POINT('',(0.253638660748041,-1.21769111177845,0.806170795356478));
#310=CARTESIAN_POINT('',(0.252472552049791,-1.21492498159567,0.804478352683658));
#311=CARTESIAN_POINT('',(0.25130644335155,-1.21215885141289,0.802785910010838));
#312=CARTESIAN_POINT('',(0.2501403346533,-1.20939272123012,0.801093467338017));
#313=CARTESIAN_POINT('',(5.00000000000007,2.71449529520851E-14,-1.24440638960952E-13));
#314=CARTESIAN_POINT('',(0.724786588323986,2.66907904993465E-14,-2.59280291660647));
#315=CARTESIAN_POINT('',(0.724786588323986,5.18560583321273,-2.59280291660647));
#316=CARTESIAN_POINT('',(0.724786588323986,5.18560583321273,2.59280291660622));
#317=CARTESIAN_POINT('',(0.724786588323985,2.73413118028378E-14,2.59280291660623));
#318=CARTESIAN_POINT('',(0.724786588323985,-5.18560583321267,2.59280291660623));
#319=CARTESIAN_POINT('',(0.724786588323986,-5.18560583321267,-2.59280291660647));
#320=CARTESIAN_POINT('',(0.724786588323986,2.66907904993465E-14,-2.59280291660647));
#321=CARTESIAN_POINT('',(0.724259911941105,2.41777084464267E-14,-2.59312227202248));
#322=CARTESIAN_POINT('',(0.673733235558225,-2.17276356753493,1.24999999999988));
#323=CARTESIAN_POINT('',(5.00000000000007,2.71449529520851E-14,-1.24440638960952E-13));
#324=CARTESIAN_POINT('',(11.2999999999981,2.74946732048419E-14,-1.24090918708195E-13));
#325=CARTESIAN_POINT('',(11.2999999999981,2.74946732048419E-14,-4.68743078751574));
#326=CARTESIAN_POINT('',(11.2999999999981,2.74946732048419E-14,-1.24090918708195E-13));
#327=CARTESIAN_POINT('',(4.99999999999885,2.7144952952085E-14,-1.24440638960952E-13));
#328=CARTESIAN_POINT('',(4.99999999999885,2.7144952952085E-14,-4.9999847849532));
#329=CARTESIAN_POINT('',(4.99999999999885,-4.84121346872475,1.24999999999988));
#330=CARTESIAN_POINT('',(4.55723642511224,-4.84158225663392,1.24999999999988));
#331=CARTESIAN_POINT('',(3.6719663343947,-4.71874946064661,1.24999999999988));
#332=CARTESIAN_POINT('',(2.44334494919257,-4.18290253100918,1.24999999999988));
#333=CARTESIAN_POINT('',(1.40626196183094,-3.33418635273553,1.24999999999988));
#334=CARTESIAN_POINT('',(0.8938719516435,-2.60263019826728,1.24999999999988));
#335=CARTESIAN_POINT('',(0.69211030811312,-2.20897564087191,1.24999999999988));
#336=CARTESIAN_POINT('',(5.00000000000007,2.71449529520851E-14,-1.24440638960952E-13));
#337=CARTESIAN_POINT('',(5.25336953626078,2.71590177867298E-14,-1.24426574126307E-13));
#338=CARTESIAN_POINT('',(5.25336953626078,2.71590177867298E-14,-4.99356102674773));
#339=CARTESIAN_POINT('',(5.25336953626078,-4.83457875391976,1.24999999999988));
#340=CARTESIAN_POINT('',(5.16899022258479,-4.83900099879775,1.24999999999988));
#341=CARTESIAN_POINT('',(5.08449511717281,-4.84121358100275,1.24999999999988));
#342=CARTESIAN_POINT('',(4.99999999999885,-4.84121346872475,1.24999999999988));
#343=CARTESIAN_POINT('',(5.00000000000007,2.71449529520851E-14,-1.24440638960952E-13));
#344=CARTESIAN_POINT('',(11.2999999999981,-4.5176882791699,1.24999999999988));
#345=CARTESIAN_POINT('',(5.00000000000007,2.71449529520851E-14,-1.24440638960952E-13));
#346=MECHANICAL_DESIGN_GEOMETRIC_PRESENTATION_REPRESENTATION('',(#55,#56),
#347);
#347=(
GEOMETRIC_REPRESENTATION_CONTEXT(3)
GLOBAL_UNCERTAINTY_ASSIGNED_CONTEXT((#348))
GLOBAL_UNIT_ASSIGNED_CONTEXT((#354,#350,#349))
REPRESENTATION_CONTEXT('10K2R030A12-SRC10-A','TOP_LEVEL_ASSEMBLY_PART')
);
#348=UNCERTAINTY_MEASURE_WITH_UNIT(LENGTH_MEASURE(0.0508),#354,
'DISTANCE_ACCURACY_VALUE','Maximum Tolerance applied to model');
#349=(
NAMED_UNIT(*)
SI_UNIT($,.STERADIAN.)
SOLID_ANGLE_UNIT()
);
#350=(
CONVERSION_BASED_UNIT('DEGREE',#352)
NAMED_UNIT(#351)
PLANE_ANGLE_UNIT()
);
#351=DIMENSIONAL_EXPONENTS(0.,0.,0.,0.,0.,0.,0.);
#352=PLANE_ANGLE_MEASURE_WITH_UNIT(PLANE_ANGLE_MEASURE(0.0174532925),#353);
#353=(
NAMED_UNIT(*)
PLANE_ANGLE_UNIT()
SI_UNIT($,.RADIAN.)
);
#354=(
LENGTH_UNIT()
NAMED_UNIT(*)
SI_UNIT(.MILLI.,.METRE.)
);
ENDSEC;
END-ISO-10303-21;
