ISO-10303-21;
HEADER;
/* Generated by software containing ST-Developer
 * from STEP Tools, Inc. (www.steptools.com) 
 */
/* OPTION: using custom schema-name function */

FILE_DESCRIPTION(
/* description */ (''),
/* implementation_level */ '2;1');

FILE_NAME(
/* name */ '08K2R30M06_SRC08_A_SIM.stp',
/* time_stamp */ '2022-01-14T09:15:00+01:00',
/* author */ (''),
/* organization */ (''),
/* preprocessor_version */ 'ST-DEVELOPER v16.7',
/* originating_system */ 'SIEMENS PLM Software NX 12.0',
/* authorisation */ '');

FILE_SCHEMA (('AUTOMOTIVE_DESIGN { 1 0 10303 214 3 1 1 1 }'));
ENDSEC;

DATA;
#10=PROPERTY_DEFINITION_REPRESENTATION(#14,#12);
#11=PROPERTY_DEFINITION_REPRESENTATION(#15,#13);
#12=REPRESENTATION('',(#16),#412);
#13=REPRESENTATION('',(#17),#412);
#14=PROPERTY_DEFINITION('pmi validation property','',#21);
#15=PROPERTY_DEFINITION('pmi validation property','',#21);
#16=VALUE_REPRESENTATION_ITEM('number of annotations',COUNT_MEASURE(0.));
#17=VALUE_REPRESENTATION_ITEM('number of views',COUNT_MEASURE(0.));
#18=SHAPE_REPRESENTATION_RELATIONSHIP('None',
'relationship between fo3414C86DA8ouyy-None and fo3414C86DA8ouyy-None',
#30,#19);
#19=ADVANCED_BREP_SHAPE_REPRESENTATION('fo3414C86DA8ouyy-None',(#54,#55),
#412);
#20=SHAPE_DEFINITION_REPRESENTATION(#21,#30);
#21=PRODUCT_DEFINITION_SHAPE('','',#22);
#22=PRODUCT_DEFINITION(' ','',#24,#23);
#23=PRODUCT_DEFINITION_CONTEXT('part definition',#29,'design');
#24=PRODUCT_DEFINITION_FORMATION_WITH_SPECIFIED_SOURCE(' ',' ',#26,
 .NOT_KNOWN.);
#25=PRODUCT_RELATED_PRODUCT_CATEGORY('part','',(#26));
#26=PRODUCT('fo3414C86DA8ouyy','fo3414C86DA8ouyy',' ',(#27));
#27=PRODUCT_CONTEXT(' ',#29,'mechanical');
#28=APPLICATION_PROTOCOL_DEFINITION('international standard',
'automotive_design',2010,#29);
#29=APPLICATION_CONTEXT(
'core data for automotive mechanical design processes');
#30=SHAPE_REPRESENTATION('fo3414C86DA8ouyy-None',(#240),#412);
#31=TOROIDAL_SURFACE('',#263,15.75,12.);
#32=SPHERICAL_SURFACE('',#262,3.75);
#33=CYLINDRICAL_SURFACE('',#250,3.);
#34=CYLINDRICAL_SURFACE('',#254,3.25);
#35=CYLINDRICAL_SURFACE('',#258,5.);
#36=CYLINDRICAL_SURFACE('',#261,3.75);
#37=PRESENTATION_LAYER_ASSIGNMENT('1','Layer 1',(#54,#55));
#38=STYLED_ITEM('',(#40),#54);
#39=STYLED_ITEM('',(#41),#55);
#40=PRESENTATION_STYLE_ASSIGNMENT((#42));
#41=PRESENTATION_STYLE_ASSIGNMENT((#43));
#42=SURFACE_STYLE_USAGE(.BOTH.,#44);
#43=SURFACE_STYLE_USAGE(.BOTH.,#45);
#44=SURFACE_SIDE_STYLE('',(#46));
#45=SURFACE_SIDE_STYLE('',(#47));
#46=SURFACE_STYLE_FILL_AREA(#48);
#47=SURFACE_STYLE_FILL_AREA(#49);
#48=FILL_AREA_STYLE('',(#50));
#49=FILL_AREA_STYLE('',(#51));
#50=FILL_AREA_STYLE_COLOUR('',#52);
#51=FILL_AREA_STYLE_COLOUR('',#53);
#52=COLOUR_RGB('Light Gray',0.8,0.8,0.8);
#53=COLOUR_RGB('Medium Gray',0.490196078431373,0.490196078431373,0.490196078431373);
#54=MANIFOLD_SOLID_BREP('',#56);
#55=MANIFOLD_SOLID_BREP('',#57);
#56=CLOSED_SHELL('',(#70,#71,#72,#73,#74,#75,#76,#77));
#57=CLOSED_SHELL('',(#78,#79,#80,#81,#82,#83,#84,#85,#86));
#58=PLANE('',#246);
#59=PLANE('',#248);
#60=PLANE('',#252);
#61=PLANE('',#256);
#62=FACE_OUTER_BOUND('',#158,.T.);
#63=FACE_OUTER_BOUND('',#161,.T.);
#64=FACE_OUTER_BOUND('',#174,.T.);
#65=VERTEX_LOOP('',#213);
#66=LINE('',#349,#68);
#67=LINE('',#384,#69);
#68=VECTOR('',#274,0.15586939831512);
#69=VECTOR('',#285,5.10429897741392);
#70=ADVANCED_FACE('',(#119,#120),#87,.F.);
#71=ADVANCED_FACE('',(#121,#122),#88,.F.);
#72=ADVANCED_FACE('',(#123,#124),#89,.F.);
#73=ADVANCED_FACE('',(#125,#126),#90,.F.);
#74=ADVANCED_FACE('',(#127,#128),#91,.F.);
#75=ADVANCED_FACE('',(#129,#130),#92,.F.);
#76=ADVANCED_FACE('',(#62),#58,.F.);
#77=ADVANCED_FACE('',(#131,#132),#93,.F.);
#78=ADVANCED_FACE('',(#63),#59,.F.);
#79=ADVANCED_FACE('',(#133,#134),#33,.T.);
#80=ADVANCED_FACE('',(#135,#136),#60,.F.);
#81=ADVANCED_FACE('',(#137,#138),#34,.T.);
#82=ADVANCED_FACE('',(#139,#140),#61,.F.);
#83=ADVANCED_FACE('',(#141,#142),#35,.T.);
#84=ADVANCED_FACE('',(#143,#144),#36,.T.);
#85=ADVANCED_FACE('',(#64),#32,.T.);
#86=ADVANCED_FACE('',(#145,#146),#31,.F.);
#87=SURFACE_OF_REVOLUTION('',#101,#94);
#88=SURFACE_OF_REVOLUTION('',#102,#95);
#89=SURFACE_OF_REVOLUTION('',#66,#96);
#90=SURFACE_OF_REVOLUTION('',#103,#97);
#91=SURFACE_OF_REVOLUTION('',#104,#98);
#92=SURFACE_OF_REVOLUTION('',#105,#99);
#93=SURFACE_OF_REVOLUTION('',#67,#100);
#94=AXIS1_PLACEMENT('',#339,#268);
#95=AXIS1_PLACEMENT('',#346,#271);
#96=AXIS1_PLACEMENT('',#350,#275);
#97=AXIS1_PLACEMENT('',#365,#276);
#98=AXIS1_PLACEMENT('',#374,#279);
#99=AXIS1_PLACEMENT('',#380,#280);
#100=AXIS1_PLACEMENT('',#385,#286);
#101=B_SPLINE_CURVE_WITH_KNOTS('',3,(#332,#333,#334,#335,#336,#337,#338),
 .UNSPECIFIED.,.F.,.F.,(4,1,1,1,4),(0.,0.25,0.5,0.75,1.),.UNSPECIFIED.);
#102=B_SPLINE_CURVE_WITH_KNOTS('',3,(#342,#343,#344,#345),.UNSPECIFIED.,
 .F.,.F.,(4,4),(0.,1.),.UNSPECIFIED.);
#103=B_SPLINE_CURVE_WITH_KNOTS('',3,(#359,#360,#361,#362,#363,#364),
 .UNSPECIFIED.,.F.,.F.,(4,2,4),(0.,0.0105066487780918,1.),.UNSPECIFIED.);
#104=B_SPLINE_CURVE_WITH_KNOTS('',3,(#368,#369,#370,#371,#372,#373),
 .UNSPECIFIED.,.F.,.F.,(4,2,4),(0.,0.986598662382851,1.),.UNSPECIFIED.);
#105=B_SPLINE_CURVE_WITH_KNOTS('',3,(#376,#377,#378,#379),.UNSPECIFIED.,
 .F.,.F.,(4,4),(0.,1.),.UNSPECIFIED.);
#106=CIRCLE('',#241,2.03243841737268);
#107=CIRCLE('',#242,2.00532409320011);
#108=CIRCLE('',#243,1.88586874196611);
#109=CIRCLE('',#244,0.570302291335575);
#110=CIRCLE('',#245,3.73682593263713);
#111=CIRCLE('',#247,3.);
#112=CIRCLE('',#249,3.);
#113=CIRCLE('',#251,3.25);
#114=CIRCLE('',#253,3.25);
#115=CIRCLE('',#255,5.);
#116=CIRCLE('',#257,5.);
#117=CIRCLE('',#259,3.75);
#118=CIRCLE('',#260,3.75);
#119=FACE_BOUND('',#147,.T.);
#120=FACE_BOUND('',#148,.T.);
#121=FACE_BOUND('',#149,.T.);
#122=FACE_BOUND('',#150,.T.);
#123=FACE_BOUND('',#151,.T.);
#124=FACE_BOUND('',#152,.T.);
#125=FACE_BOUND('',#153,.T.);
#126=FACE_BOUND('',#154,.T.);
#127=FACE_BOUND('',#155,.T.);
#128=FACE_BOUND('',#156,.T.);
#129=FACE_BOUND('',#157,.T.);
#130=FACE_BOUND('',#65,.T.);
#131=FACE_BOUND('',#159,.T.);
#132=FACE_BOUND('',#160,.T.);
#133=FACE_BOUND('',#162,.T.);
#134=FACE_BOUND('',#163,.T.);
#135=FACE_BOUND('',#164,.T.);
#136=FACE_BOUND('',#165,.T.);
#137=FACE_BOUND('',#166,.T.);
#138=FACE_BOUND('',#167,.T.);
#139=FACE_BOUND('',#168,.T.);
#140=FACE_BOUND('',#169,.T.);
#141=FACE_BOUND('',#170,.T.);
#142=FACE_BOUND('',#171,.T.);
#143=FACE_BOUND('',#172,.T.);
#144=FACE_BOUND('',#173,.T.);
#145=FACE_BOUND('',#175,.T.);
#146=FACE_BOUND('',#176,.T.);
#147=EDGE_LOOP('',(#177));
#148=EDGE_LOOP('',(#178));
#149=EDGE_LOOP('',(#179));
#150=EDGE_LOOP('',(#180));
#151=EDGE_LOOP('',(#181));
#152=EDGE_LOOP('',(#182));
#153=EDGE_LOOP('',(#183));
#154=EDGE_LOOP('',(#184));
#155=EDGE_LOOP('',(#185));
#156=EDGE_LOOP('',(#186));
#157=EDGE_LOOP('',(#187));
#158=EDGE_LOOP('',(#188));
#159=EDGE_LOOP('',(#189));
#160=EDGE_LOOP('',(#190));
#161=EDGE_LOOP('',(#191));
#162=EDGE_LOOP('',(#192));
#163=EDGE_LOOP('',(#193));
#164=EDGE_LOOP('',(#194));
#165=EDGE_LOOP('',(#195));
#166=EDGE_LOOP('',(#196));
#167=EDGE_LOOP('',(#197));
#168=EDGE_LOOP('',(#198));
#169=EDGE_LOOP('',(#199));
#170=EDGE_LOOP('',(#200));
#171=EDGE_LOOP('',(#201));
#172=EDGE_LOOP('',(#202));
#173=EDGE_LOOP('',(#203));
#174=EDGE_LOOP('',(#204));
#175=EDGE_LOOP('',(#205));
#176=EDGE_LOOP('',(#206));
#177=ORIENTED_EDGE('',*,*,#223,.T.);
#178=ORIENTED_EDGE('',*,*,#224,.F.);
#179=ORIENTED_EDGE('',*,*,#224,.T.);
#180=ORIENTED_EDGE('',*,*,#225,.F.);
#181=ORIENTED_EDGE('',*,*,#225,.T.);
#182=ORIENTED_EDGE('',*,*,#226,.F.);
#183=ORIENTED_EDGE('',*,*,#226,.T.);
#184=ORIENTED_EDGE('',*,*,#227,.F.);
#185=ORIENTED_EDGE('',*,*,#227,.T.);
#186=ORIENTED_EDGE('',*,*,#228,.F.);
#187=ORIENTED_EDGE('',*,*,#228,.T.);
#188=ORIENTED_EDGE('',*,*,#229,.F.);
#189=ORIENTED_EDGE('',*,*,#229,.T.);
#190=ORIENTED_EDGE('',*,*,#223,.F.);
#191=ORIENTED_EDGE('',*,*,#230,.T.);
#192=ORIENTED_EDGE('',*,*,#230,.F.);
#193=ORIENTED_EDGE('',*,*,#231,.T.);
#194=ORIENTED_EDGE('',*,*,#231,.F.);
#195=ORIENTED_EDGE('',*,*,#232,.T.);
#196=ORIENTED_EDGE('',*,*,#232,.F.);
#197=ORIENTED_EDGE('',*,*,#233,.T.);
#198=ORIENTED_EDGE('',*,*,#233,.F.);
#199=ORIENTED_EDGE('',*,*,#234,.T.);
#200=ORIENTED_EDGE('',*,*,#234,.F.);
#201=ORIENTED_EDGE('',*,*,#235,.T.);
#202=ORIENTED_EDGE('',*,*,#236,.F.);
#203=ORIENTED_EDGE('',*,*,#237,.T.);
#204=ORIENTED_EDGE('',*,*,#237,.F.);
#205=ORIENTED_EDGE('',*,*,#236,.T.);
#206=ORIENTED_EDGE('',*,*,#235,.F.);
#207=VERTEX_POINT('',#329);
#208=VERTEX_POINT('',#331);
#209=VERTEX_POINT('',#341);
#210=VERTEX_POINT('',#348);
#211=VERTEX_POINT('',#358);
#212=VERTEX_POINT('',#367);
#213=VERTEX_POINT('',#375);
#214=VERTEX_POINT('',#382);
#215=VERTEX_POINT('',#387);
#216=VERTEX_POINT('',#390);
#217=VERTEX_POINT('',#393);
#218=VERTEX_POINT('',#396);
#219=VERTEX_POINT('',#399);
#220=VERTEX_POINT('',#402);
#221=VERTEX_POINT('',#405);
#222=VERTEX_POINT('',#407);
#223=EDGE_CURVE('',#207,#207,#238,.T.);
#224=EDGE_CURVE('',#208,#208,#106,.T.);
#225=EDGE_CURVE('',#209,#209,#107,.T.);
#226=EDGE_CURVE('',#210,#210,#108,.T.);
#227=EDGE_CURVE('',#211,#211,#239,.T.);
#228=EDGE_CURVE('',#212,#212,#109,.T.);
#229=EDGE_CURVE('',#214,#214,#110,.T.);
#230=EDGE_CURVE('',#215,#215,#111,.T.);
#231=EDGE_CURVE('',#216,#216,#112,.T.);
#232=EDGE_CURVE('',#217,#217,#113,.T.);
#233=EDGE_CURVE('',#218,#218,#114,.T.);
#234=EDGE_CURVE('',#219,#219,#115,.T.);
#235=EDGE_CURVE('',#220,#220,#116,.T.);
#236=EDGE_CURVE('',#221,#221,#117,.T.);
#237=EDGE_CURVE('',#222,#222,#118,.T.);
#238=(
BOUNDED_CURVE()
B_SPLINE_CURVE(3,(#322,#323,#324,#325,#326,#327,#328),.UNSPECIFIED.,.T.,
 .F.)
B_SPLINE_CURVE_WITH_KNOTS((1,3,3,3,1),(-0.5,0.,0.5,1.,1.5),
 .UNSPECIFIED.)
CURVE()
GEOMETRIC_REPRESENTATION_ITEM()
RATIONAL_B_SPLINE_CURVE((1.,0.333333333333333,0.333333333333333,1.,0.333333333333333,
0.333333333333333,1.))
REPRESENTATION_ITEM('')
);
#239=(
BOUNDED_CURVE()
B_SPLINE_CURVE(3,(#351,#352,#353,#354,#355,#356,#357),.UNSPECIFIED.,.T.,
 .F.)
B_SPLINE_CURVE_WITH_KNOTS((1,3,3,3,1),(-0.5,0.,0.5,1.,1.5),
 .UNSPECIFIED.)
CURVE()
GEOMETRIC_REPRESENTATION_ITEM()
RATIONAL_B_SPLINE_CURVE((1.,0.333333333333333,0.333333333333333,1.,0.333333333333333,
0.333333333333333,1.))
REPRESENTATION_ITEM('')
);
#240=AXIS2_PLACEMENT_3D('',#321,#264,#265);
#241=AXIS2_PLACEMENT_3D('',#330,#266,#267);
#242=AXIS2_PLACEMENT_3D('',#340,#269,#270);
#243=AXIS2_PLACEMENT_3D('',#347,#272,#273);
#244=AXIS2_PLACEMENT_3D('',#366,#277,#278);
#245=AXIS2_PLACEMENT_3D('',#381,#281,#282);
#246=AXIS2_PLACEMENT_3D('',#383,#283,#284);
#247=AXIS2_PLACEMENT_3D('',#386,#287,#288);
#248=AXIS2_PLACEMENT_3D('',#388,#289,#290);
#249=AXIS2_PLACEMENT_3D('',#389,#291,#292);
#250=AXIS2_PLACEMENT_3D('',#391,#293,#294);
#251=AXIS2_PLACEMENT_3D('',#392,#295,#296);
#252=AXIS2_PLACEMENT_3D('',#394,#297,#298);
#253=AXIS2_PLACEMENT_3D('',#395,#299,#300);
#254=AXIS2_PLACEMENT_3D('',#397,#301,#302);
#255=AXIS2_PLACEMENT_3D('',#398,#303,#304);
#256=AXIS2_PLACEMENT_3D('',#400,#305,#306);
#257=AXIS2_PLACEMENT_3D('',#401,#307,#308);
#258=AXIS2_PLACEMENT_3D('',#403,#309,#310);
#259=AXIS2_PLACEMENT_3D('',#404,#311,#312);
#260=AXIS2_PLACEMENT_3D('',#406,#313,#314);
#261=AXIS2_PLACEMENT_3D('',#408,#315,#316);
#262=AXIS2_PLACEMENT_3D('',#409,#317,#318);
#263=AXIS2_PLACEMENT_3D('',#410,#319,#320);
#264=DIRECTION('',(0.,0.,1.));
#265=DIRECTION('',(1.,0.,0.));
#266=DIRECTION('',(-1.,0.,0.));
#267=DIRECTION('',(0.,0.,1.));
#268=DIRECTION('',(-1.,0.,0.));
#269=DIRECTION('',(-1.,0.,0.));
#270=DIRECTION('',(0.,0.,1.));
#271=DIRECTION('',(-1.,0.,0.));
#272=DIRECTION('',(-1.,0.,0.));
#273=DIRECTION('',(0.,0.,1.));
#274=DIRECTION('',(0.448803269668821,-0.893630586503492,0.));
#275=DIRECTION('',(-1.,0.,0.));
#276=DIRECTION('',(-1.,0.,0.));
#277=DIRECTION('',(-1.,0.,0.));
#278=DIRECTION('',(0.,0.,1.));
#279=DIRECTION('',(-1.,0.,0.));
#280=DIRECTION('',(-1.,0.,0.));
#281=DIRECTION('',(-1.,0.,0.));
#282=DIRECTION('',(0.,0.,1.));
#283=DIRECTION('',(-1.,0.,0.));
#284=DIRECTION('',(0.,0.,-1.));
#285=DIRECTION('',(0.998629534754569,0.0523359562430373,0.));
#286=DIRECTION('',(-1.,0.,0.));
#287=DIRECTION('',(1.,0.,0.));
#288=DIRECTION('',(0.,0.,-1.));
#289=DIRECTION('',(-1.,0.,0.));
#290=DIRECTION('',(0.,0.,-1.));
#291=DIRECTION('',(1.,0.,0.));
#292=DIRECTION('',(0.,0.,-1.));
#293=DIRECTION('',(1.,0.,0.));
#294=DIRECTION('',(0.,0.,1.));
#295=DIRECTION('',(1.,0.,0.));
#296=DIRECTION('',(0.,0.,-1.));
#297=DIRECTION('',(-1.,0.,0.));
#298=DIRECTION('',(0.,0.,-1.));
#299=DIRECTION('',(1.,0.,0.));
#300=DIRECTION('',(0.,0.,-1.));
#301=DIRECTION('',(1.,0.,0.));
#302=DIRECTION('',(0.,0.,1.));
#303=DIRECTION('',(1.,0.,0.));
#304=DIRECTION('',(0.,0.,-1.));
#305=DIRECTION('',(-1.,0.,0.));
#306=DIRECTION('',(0.,0.,-1.));
#307=DIRECTION('',(1.,0.,0.));
#308=DIRECTION('',(0.,0.,-1.));
#309=DIRECTION('',(1.,0.,0.));
#310=DIRECTION('',(0.,0.,1.));
#311=DIRECTION('',(1.,0.,0.));
#312=DIRECTION('',(0.,0.,-1.));
#313=DIRECTION('',(1.,0.,0.));
#314=DIRECTION('',(0.,0.,-1.));
#315=DIRECTION('',(1.,0.,0.));
#316=DIRECTION('',(0.,0.,1.));
#317=DIRECTION('',(1.,3.69778549322349E-32,0.));
#318=DIRECTION('',(0.,-1.,0.));
#319=DIRECTION('',(1.,0.,0.));
#320=DIRECTION('',(0.,0.,1.));
#321=CARTESIAN_POINT('',(0.,0.,0.));
#322=CARTESIAN_POINT('',(-26.0000000000002,-3.31917159608954E-13,4.00000000000086));
#323=CARTESIAN_POINT('',(-26.0000000000002,8.00000000000041,4.00000000000086));
#324=CARTESIAN_POINT('',(-26.0000000000002,8.0000000000004,-3.99999999999988));
#325=CARTESIAN_POINT('',(-26.0000000000002,-3.33218202215936E-13,-3.99999999999988));
#326=CARTESIAN_POINT('',(-26.0000000000002,-8.00000000000107,-3.99999999999988));
#327=CARTESIAN_POINT('',(-26.0000000000002,-8.00000000000107,4.00000000000086));
#328=CARTESIAN_POINT('',(-26.0000000000002,-3.31917159608954E-13,4.00000000000086));
#329=CARTESIAN_POINT('',(-25.9986518565317,-3.31223763694322E-13,4.00250484350623));
#330=CARTESIAN_POINT('',(-29.4451685140934,-3.32350840477948E-13,4.88549970191365E-13));
#331=CARTESIAN_POINT('',(-29.4451685140934,-3.32350840477948E-13,2.03243841737316));
#332=CARTESIAN_POINT('',(-29.4463326101392,-1.76714182851162,1.00000000000049));
#333=CARTESIAN_POINT('',(-29.2848663278817,-2.08210636510075,1.00000000000049));
#334=CARTESIAN_POINT('',(-28.8749328728354,-2.66746538025572,1.00000000000049));
#335=CARTESIAN_POINT('',(-28.0450919977713,-3.34642569412034,1.00000000000049));
#336=CARTESIAN_POINT('',(-27.0622283961642,-3.77519000970521,1.00000000000049));
#337=CARTESIAN_POINT('',(-26.3541086527683,-3.87310521844001,1.00000000000049));
#338=CARTESIAN_POINT('',(-26.0000000000002,-3.87298334620813,1.00000000000049));
#339=CARTESIAN_POINT('',(-26.0000000000001,-3.32350840477948E-13,4.88549970191365E-13));
#340=CARTESIAN_POINT('',(-29.4610222216361,-3.32350840477948E-13,4.88549970191365E-13));
#341=CARTESIAN_POINT('',(-29.4610222216361,-3.32350840477948E-13,2.0053240932006));
#342=CARTESIAN_POINT('',(-29.4610222852658,-1.7381956962102,1.00000000000087));
#343=CARTESIAN_POINT('',(-29.4554038430536,-1.74938280679668,1.00000000000087));
#344=CARTESIAN_POINT('',(-29.4497311274161,-1.76054270609684,1.00000000000087));
#345=CARTESIAN_POINT('',(-29.4440044180476,-1.77167487791054,1.00000000000087));
#346=CARTESIAN_POINT('',(-26.0000000000001,-3.32350840477948E-13,4.88549970191365E-13));
#347=CARTESIAN_POINT('',(-29.5309769172462,-3.32350840477948E-13,4.88549970191365E-13));
#348=CARTESIAN_POINT('',(-29.5309769172462,-3.32350840477948E-13,1.8858687419666));
#349=CARTESIAN_POINT('',(-29.5309769172462,-1.59890616107458,1.00000000000232));
#350=CARTESIAN_POINT('',(-26.0000000000001,-3.32350840477948E-13,4.88549970191365E-13));
#351=CARTESIAN_POINT('',(-29.7987949773027,-0.967207772413353,0.631661720372436));
#352=CARTESIAN_POINT('',(-29.7987949773027,0.296115668330543,2.56607726519848));
#353=CARTESIAN_POINT('',(-29.7987949773027,2.23053121315659,1.30275382445458));
#354=CARTESIAN_POINT('',(-29.7987949773027,0.967207772412689,-0.63166172037146));
#355=CARTESIAN_POINT('',(-29.7987949773027,-0.296115668331207,-2.5660772651975));
#356=CARTESIAN_POINT('',(-29.7987949773027,-2.23053121315725,-1.30275382445361));
#357=CARTESIAN_POINT('',(-29.7987949773027,-0.967207772413353,0.631661720372436));
#358=CARTESIAN_POINT('',(-29.7987992124344,-0.967209088380624,0.631662579801169));
#359=CARTESIAN_POINT('',(-29.7988034475661,-0.967211562676075,0.631661665580769));
#360=CARTESIAN_POINT('',(-29.7978626717153,-0.969422851999676,0.63295142221566));
#361=CARTESIAN_POINT('',(-29.7969218958646,-0.971634141323278,0.634241178850551));
#362=CARTESIAN_POINT('',(-29.7073808946714,-1.1820998540644,0.756997412748841));
#363=CARTESIAN_POINT('',(-29.6190491207008,-1.39045473028902,0.878487463503518));
#364=CARTESIAN_POINT('',(-29.5309769172462,-1.59890616107458,1.00000000000232));
#365=CARTESIAN_POINT('',(-26.0000000000001,-3.32350840477948E-13,4.88549970191365E-13));
#366=CARTESIAN_POINT('',(-29.9581623811403,-3.32350840477948E-13,4.88549970191365E-13));
#367=CARTESIAN_POINT('',(-29.9581623811403,-3.32350840477948E-13,0.570302291336063));
#368=CARTESIAN_POINT('',(-29.9581623811435,-0.457319268961494,0.340740061840009));
#369=CARTESIAN_POINT('',(-29.9224607752501,-0.629802355005596,0.437102589404728));
#370=CARTESIAN_POINT('',(-29.8702711805308,-0.797551086805438,0.532785724981593));
#371=CARTESIAN_POINT('',(-29.8006607237682,-0.962779749469466,0.629079939861649));
#372=CARTESIAN_POINT('',(-29.7997278505355,-0.964994034561857,0.630370411145835));
#373=CARTESIAN_POINT('',(-29.7987949773027,-0.967208319654248,0.631660882430022));
#374=CARTESIAN_POINT('',(-26.0000000000001,-3.32350840477948E-13,4.88549970191365E-13));
#375=CARTESIAN_POINT('',(-30.,-1.59086733567765E-10,1.19519665839543E-10));
#376=CARTESIAN_POINT('',(-30.,-1.59086733567765E-10,1.19519665839543E-10));
#377=CARTESIAN_POINT('',(-29.9915490212729,-0.181034735718492,0.0688276985296588));
#378=CARTESIAN_POINT('',(-29.9754593274591,-0.329545006308769,0.199867738870772));
#379=CARTESIAN_POINT('',(-29.9581623811403,-0.457319268958932,0.340740061839097));
#380=CARTESIAN_POINT('',(-26.0000000000001,-3.32350840477948E-13,4.88549970191365E-13));
#381=CARTESIAN_POINT('',(-20.7000000000001,-3.32350840477948E-13,4.88549970191365E-13));
#382=CARTESIAN_POINT('',(-20.7000000000001,-3.32350840477948E-13,3.73682593263762));
#383=CARTESIAN_POINT('',(-20.7000000000001,-3.32350840477948E-13,4.88549970191365E-13));
#384=CARTESIAN_POINT('',(-25.7973037130632,-3.86767555713603,1.00000000000049));
#385=CARTESIAN_POINT('',(-26.0000000000001,-3.32350840477948E-13,4.88549970191365E-13));
#386=CARTESIAN_POINT('',(15.,0.,0.));
#387=CARTESIAN_POINT('',(15.,0.,-3.));
#388=CARTESIAN_POINT('',(15.,-3.,0.));
#389=CARTESIAN_POINT('',(5.,0.,0.));
#390=CARTESIAN_POINT('',(5.,0.,-3.));
#391=CARTESIAN_POINT('',(-30.,0.,0.));
#392=CARTESIAN_POINT('',(5.,0.,0.));
#393=CARTESIAN_POINT('',(5.,0.,-3.25));
#394=CARTESIAN_POINT('',(5.,-3.25,0.));
#395=CARTESIAN_POINT('',(0.,0.,0.));
#396=CARTESIAN_POINT('',(0.,0.,-3.25));
#397=CARTESIAN_POINT('',(-30.,0.,0.));
#398=CARTESIAN_POINT('',(0.,0.,0.));
#399=CARTESIAN_POINT('',(0.,0.,-5.));
#400=CARTESIAN_POINT('',(0.,-5.,0.));
#401=CARTESIAN_POINT('',(-8.,0.,0.));
#402=CARTESIAN_POINT('',(-8.,0.,-5.));
#403=CARTESIAN_POINT('',(-30.,0.,0.));
#404=CARTESIAN_POINT('',(-13.3326822519254,0.,0.));
#405=CARTESIAN_POINT('',(-13.3326822519254,0.,-3.75));
#406=CARTESIAN_POINT('',(-25.75,0.,0.));
#407=CARTESIAN_POINT('',(-25.75,0.,-3.75));
#408=CARTESIAN_POINT('',(-30.,0.,0.));
#409=CARTESIAN_POINT('',(-25.75,0.,0.));
#410=CARTESIAN_POINT('',(-13.3326822519254,0.,0.));
#411=MECHANICAL_DESIGN_GEOMETRIC_PRESENTATION_REPRESENTATION('',(#38,#39),
#412);
#412=(
GEOMETRIC_REPRESENTATION_CONTEXT(3)
GLOBAL_UNCERTAINTY_ASSIGNED_CONTEXT((#413))
GLOBAL_UNIT_ASSIGNED_CONTEXT((#419,#415,#414))
REPRESENTATION_CONTEXT('08K2R30M06_SRC08_A_SIM',
'TOP_LEVEL_ASSEMBLY_PART')
);
#413=UNCERTAINTY_MEASURE_WITH_UNIT(LENGTH_MEASURE(0.0508),#419,
'DISTANCE_ACCURACY_VALUE','Maximum Tolerance applied to model');
#414=(
NAMED_UNIT(*)
SI_UNIT($,.STERADIAN.)
SOLID_ANGLE_UNIT()
);
#415=(
CONVERSION_BASED_UNIT('DEGREE',#417)
NAMED_UNIT(#416)
PLANE_ANGLE_UNIT()
);
#416=DIMENSIONAL_EXPONENTS(0.,0.,0.,0.,0.,0.,0.);
#417=PLANE_ANGLE_MEASURE_WITH_UNIT(PLANE_ANGLE_MEASURE(0.0174532925),#418);
#418=(
NAMED_UNIT(*)
PLANE_ANGLE_UNIT()
SI_UNIT($,.RADIAN.)
);
#419=(
LENGTH_UNIT()
NAMED_UNIT(*)
SI_UNIT(.MILLI.,.METRE.)
);
ENDSEC;
END-ISO-10303-21;
